Oops, an error
Loading. Please wait.

Young Wife tab

1,150 views 15 this week
no commentswrite comment
1 2 3 4 5
x 5
add to favorites
×
Save as Personal and add changes to this tab that will be seen only by you. Learn more ›
×
You can save this tab as Personal to edit and correct it or add notes. All changes will be seen only by you. Learn more »
launch autoscroll
font size
0
reset
how to read this tab
guitar tuner
edit
Autoscroll
slow
fast
+/-
esc
set tempo
stop
Author
Difficulty
Intro/Verse:

e|------------------------------------------0-------------------0-------------------|
B|---0----0----0----0----0----0----0----0-----0--------0----0-----0---------0-----0-|
G|------7---------7---------7---------7---------7---------7---------7---------7-----|  
D|-4---------4---------4---------4---------4---------4---------4---------4----------|
A|----------------------------------------------------------------------------------|
E|----------------------------------------------------------------------------------|     x2

e|-----------------------------------------------------------0----------------------0-------------|
B|----0----------0----------0----------0----------0----------------------0------------------------|
G|------0----------0----------0----------0----------0----------0-----------0----------0-----------|  
D|--------9----------9----------7----------7----------5----------5-----------5----------5---------|
A|--7----------7-----------5----------5----------3----------3----------3-----------3--------------|
E|------------------------------------------------------------------------------------------------| 


I keep you in the cataracts, inside the blindness of my eyes

Oh celestial body

Barricade this blown out divide



And with your hands that built the roof, set the tea in the kettle to brew

I made my soul good by trusting the bees

I made my life simple by learning what I can’t keep



In ribboned and colorful ways

I learned to compromise with 13 teeth pressed to my side



I, I am your young wife

I am your young wife

            
            
Suggest correction
Creating personal tab
Creating personal tab
You can edit any tab online and save it as your Personal.

You can edit, replace or remove any tab part or add personal notes – all changes will be seen only by you.

Personal tabs can be accessed anytime from any device, even offline.
Learn more »
comments
print report bad tab
guest
You may want to rate the tab now too:
select rating
Wanna post a correction for this tab? Suggest correction