Oops, an error
Loading. Please wait.

The Heat bass

by Jungle
142 views 15 this week
no commentswrite comment
1 2 3 4 5
x 3
add to favorites
×
Save as Personal and add changes to this tab that will be seen only by you. Learn more ›
×
You can save this tab as Personal to edit and correct it or add notes. All changes will be seen only by you. Learn more »
launch autoscroll
font size
0
reset
guitar tuner
edit
Autoscroll
slow
fast
+/-
esc
set tempo
stop
About this tab version
The song is preferably played with a pick, and mostly palm muted. Was this info helpful? Yes No
[Intro - 00:08]

   1 ^ + ^ 2 ^ + ^ 3 ^ + ^  4  ^  + ^  
G|--------------------------13h15-----|
D|-----------------------15-----------|
A|------------------------------------|
E|------------------------------------|

   1 ^ + ^ 2 ^ + ^ 3 ^ + ^ 4 ^ + ^  
G|---------------------------------|
D|---------------------------------|
A|---------------------------------|
E|---------------------------------| x2

   1 ^ + ^ 2  ^  +  ^ 3 ^ + ^ 4 ^ + ^  
G|------------13h15-------------------|
D|---------15-------------------------|
A|------------------------------------|
E|------------------------------------|

   1 ^ + ^ 2  ^  +  ^ 3 ^ + ^ 4 ^ + ^  
G|---------15-15p13-------------------|
D|------------------15----------------|
A|------------------------------------|
E|------------------------------------|

   1 ^ + ^ 2 ^ + ^ 3 ^ + ^ 4 ^ + ^
G|---------------------------------|
D|---------------------------------|
A|---------------------------------|
E|---------------------------------| x4


[Chorus]

   1 ^ + ^ 2 ^ + ^ 3 ^ + ^ 4 ^ + ^   1 ^ + ^ 2 ^ + ^ 3 ^ + ^ 4 ^ + ^   _
G|---------------------------------|---------------------------------|  |
D|---------------------------------|---------------------------------|  |
A|---------------------------------|-----------------------------x-4-|  |
E|-6-----------x-6-6-----------x-6-|-4-----------x-4-4---------------|  |
                                                                         \ x2
   1 ^ + ^ 2 ^ + ^ 3 ^ + ^ 4 ^ + ^   1 ^ + ^ 2 ^ + ^ 3 ^ + ^ 4 ^ + ^     /
G|---------------------------------|---------------------------------|  |
D|---------------------------------|---------------------------------|  |
A|---6-6---6---6---6-------x---4---|---6-6---6---6-------8-----------|  |
E|---------------------------------|---------------------------------| _|


[Verse]

   1 ^ + ^ 2 ^ +  ^  3 ^ + ^ 4 ^ + ^   1 ^ + ^ 2 ^ + ^ 3 ^ + ^ 4 ^ + ^ 
G|-------------10-10-----------------|---------------------------------|
D|-----------------------------------|---------------------------------|
A|-8-----------------8-----------x-x-|-6-----------x-x-6---------------|
E|-----------------------------------|---------------------------------|

   1 ^ + ^ 2 ^ + ^ 3 ^ + ^ 4 ^ + ^   1 ^ + ^ 2 ^ + ^ 3 ^ + ^ 4 ^ + ^
G|---------------------------------|---------------------------------|
D|---------------------------------|---------------------------------|
A|-----------------------------x-4-|-----------------4---4---6---6---|
E|-6---6---6---6---6-------6-------|---------------------------------|

   1 ^ + ^ 2 ^ +  ^  3 ^ + ^ 4 ^ + ^   1 ^ + ^ 2 ^ + ^ 3 ^ + ^ 4 ^ + ^ 
G|-------------10-10-----------------|---------------------------------|
D|-----------------------------------|-----------------6-6-----6---7-8-|
A|-8-----------------8-----------x-x-|-6-------------------8-----------|
E|-----------------------------------|---------------------------------|

   1 ^ + ^ 2 ^ + ^ 3 ^ + ^ 4 ^ + ^   1 ^ + ^ 2 ^ + ^ 3 ^ + ^ 4 ^ + ^
G|---------------------------------|---------------------------------|
D|---------------------------------|---------------------------------|
A|-----------------------------x-4-|-----------------4---4---6---6---|
E|-----6---6---6---6-------6-------|---------------------------------|

   1 ^ + ^ 2 ^ + ^  3 ^ + ^ 4 ^ + ^   1 ^ + ^ 2 ^ + ^ 3 ^ + ^ 4 ^ + ^ 
G|---------------10-----------------|---------------------------------|
D|----------------------------------|---------------------------------|
A|-8----------------8-----------x-x-|-6-------------------------------|
E|----------------------------------|---------------------------------|


[Chorus]

   1 ^ + ^ 2 ^ + ^ 3 ^ + ^ 4 ^ + ^   1 ^ + ^ 2 ^ + ^ 3 ^ + ^ 4 ^ + ^  
G|---------------------------------|---------------------------------|
D|---------------------------------|---------------------------------|
A|---------------------------------|-----------------------------x-4-|
E|-6-----------x-6-6-----------x-6-|-4-----------x-4-4---------------|

   1 ^ + ^ 2 ^ + ^ 3 ^ + ^ 4 ^ + ^   1 ^ + ^ 2 ^ + ^ 3 ^ + ^ 4 ^ + ^  
G|---------------------------------|---------------------------------|
D|---------------------------------|---------------------------------|
A|---6-6---6---6---6-------x---4---|---6-6---6---6-------8-----------|
E|---------------------------------|---------------------------------|

   1 ^ + ^ 2 ^ + ^ 3 ^ + ^ 4 ^ + ^   1 ^ + ^ 2 ^ + ^ 3 ^ + ^ 4 ^ + ^  
G|---------------------------------|---------------------------------|
D|---------------------------------|---------------------------------|
A|---------------------------------|-----------------------------x-4-|
E|-------------x-6-6-----------x-6-|-4-----------x-4-4---------------|

   1 ^ + ^ 2 ^ + ^ 3 ^ + ^ 4 ^ + ^   1 ^ + ^ 2 ^ + ^ 3 ^ + ^ 4 ^ + ^  
G|---------------------------------|---------------------------------|
D|---------------------------------|---------------------------------|
A|---6-6---6---6---6-------x---4---|---6-6---6---6-------------------|
E|---------------------------------|---------------------------------|


[Verse]

   1 ^ + ^ 2 ^ + ^ 3 ^ + ^ 4 ^ + ^
G|---------------------------------|
D|---------------------------------|
A|---------------------------------|
E|---------------------------------| x4

   1 ^ + ^ 2 ^ + ^ 3 ^ + ^ 4 ^ + ^   1 ^ + ^ 2 ^ + ^ 3 ^ + ^ 4 ^ + ^ 
G|---------------------------------|---------------------------------|
D|---------------------------------|-----------------6-6-----6-6-7-8-|
A|-6h8-8---8---8---8-----------x-6-|---6-6---6-----------8-8---------|
E|---------------------------------|---------------------------------|

   1 ^ + ^ 2 ^ + ^ 3 ^ + ^ 4 ^ + ^   1 ^ + ^ 2 ^ + ^ 3 ^ + ^ 4 ^ + ^
G|---------------------------------|---------------------------------|
D|---------------------------------|---------------------------------|
A|-----------------------------x-4-|-----4---4---4---4-----------x-6-|
E|-----6---6---6---6---------------|---------------------------------|

   1 ^ + ^ 2 ^ + ^ 3 ^ + ^ 4 ^ + ^   1 ^ + ^ 2 ^ + ^ 3 ^ + ^ 4 ^ + ^ 
G|---------------------------------|---------------------------------|
D|---------------------------------|-----------------6-6-----6---7-8-|
A|---8-8---8---8---8-----------x-6-|---6-6---6-----------8-8---------|
E|---------------------------------|---------------------------------|


[Bridge]

   1 ^ + ^ 2 ^ + ^ 3 ^ + ^ 4 ^ + ^
G|---------------------------------|
D|---------------------------------|
A|---------------------------------|
E|---------------------------------| x2

   1 ^ + ^ 2  ^  +  ^ 3 ^ + ^ 4 ^ + ^   1 ^ + ^ 2  ^  +  ^  3 ^ + ^ 4 ^ + ^  
G|------------13h15-------------------|---------15-15p13--------------------|
D|---------15-------------------------|------------------15-----------------|
A|------------------------------------|-------------------------------------|
E|------------------------------------|-------------------------------------|

   1 ^ + ^ 2 ^ + ^ 3 ^ + ^ 4 ^ + ^
G|---------------------------------|
D|---------------------------------|
A|---------------------------------|
E|---------------------------------| x4


[Chorus]

   1 ^ + ^ 2 ^ + ^ 3 ^ + ^ 4 ^ + ^   1 ^ + ^ 2 ^ + ^ 3 ^ + ^ 4 ^ + ^
G|---------------------------------|---------------------------------|
D|---------------------------------|---------------------------------|
A|---------------------------------|---4-4---4---4---4---------------|
E|-4h6-6---6---6---6-------------x-|-6-------------------------------|

   1 ^ + ^ 2 ^ + ^ 3 ^ + ^ 4 ^ + ^   1 ^ + ^ 2 ^ + ^ 3 ^ + ^ 4 ^ + ^
G|---------------------------------|---------------------------------|
D|-----------------------------4---|-------------6---------------8---|
A|-4h6-6---6---6---6---------------|---------------------------------|
E|---------------------------------|---------------------------------|

   1 ^ + ^ 2 ^ + ^ 3 ^ + ^ 4 ^ + ^   1 ^ + ^ 2 ^ + ^ 3 ^ + ^ 4 ^ + ^
G|---------------------------------|---------------------------------|
D|-------------8---8-------8---7---|-------------7---7-------7---6---|
A|---------------------------------|---------------------------------|
E|---------------------------------|---------------------------------|

   1 ^ + ^ 2 ^ + ^ 3 ^ + ^ 4 ^ + ^   1 ^ + ^ 2 ^ + ^ 3 ^ + ^ 4 ^ + ^
G|---------------------------------|---------------------------------|
D|-------------6---6-------6---5---|-------------6-------------------|
A|---------------------------------|---------------------------------|
E|---------------------------------|---------------------------------|

   1 ^ + ^ 2 ^ + ^ 3 ^ + ^ 4 ^ + ^   1 ^ + ^ 2 ^ + ^ 3 ^ + ^ 4 ^ + ^
G|---------------------------------|---------------------------------|
D|---------------------------------|---------------------------------|
A|---------------------------------|---4-4---4---4---4---------------|
E|-4h6-6---6---6---6-------------x-|-6-------------------------------|

   1 ^ + ^ 2 ^ + ^ 3 ^ + ^ 4 ^ + ^   1 ^ + ^ 2 ^ + ^ 3 ^ + ^ 4 ^ + ^
G|---------------------------------|---------------------------------|
D|-----------------------------4---|-------------6---------------8---|
A|---------6---6---6---------------|---------------------------------|
E|---------------------------------|---------------------------------|

   1 ^ + ^ 2 ^ + ^ 3 ^ + ^ 4 ^ + ^   1 ^ + ^ 2 ^ + ^ 3 ^ + ^ 4 ^ + ^
G|---------------------------------|---------------------------------|
D|-------------8---8-------8---7---|-------------7---7-------7---6---|
A|---------------------------------|---------------------------------|
E|---------------------------------|---------------------------------|

   1 ^ + ^ 2 ^ + ^ 3 ^ + ^ 4 ^ + ^   1 ^ + ^ 2 ^ + ^ 3 ^ + ^ 4 ^ + ^
G|---------------------------------|---------------------------------|
D|-------------6---6-------6---5---|-------------6-------------------|
A|---------------------------------|---------------------------------|
E|---------------------------------|---------------------------------|

   1 ^ + ^ 2 ^ + ^ 3 ^ + ^ 4 ^ + ^   1 ^ + ^ 2 ^ + ^ 3 ^ + ^ 4 ^ + ^
G|---------------------------------|---------------------------------|
D|---------------------------------|---------------------------------|
A|---------------------------------|---4-4---4---4---4-------------x-|
E|---------6---6---6-------------x-|-6-------------------------------|

   1 ^ + ^ 2 ^ + ^ 3 ^ + ^ 4 ^ + ^   1 ^ + ^ 2 ^ + ^ 3 ^ + ^ 4 ^ + ^
G|---------------------------------|---------------------------------|
D|-----------------------------4---|-------------6---------------8---|
A|-4h6-6---6---6---6---------------|---------------------------------|
E|---------------------------------|---------------------------------|

   1 ^ + ^ 2 ^ + ^ 3 ^ + ^ 4 ^ + ^   1 ^ + ^ 2 ^ + ^ 3 ^ + ^ 4 ^ + ^
G|---------------------------------|---------------------------------|
D|-------------8---8-------8---7---|-------------7---7-------7---6---|
A|---------------------------------|---------------------------------|
E|---------------------------------|---------------------------------|

   1 ^ + ^ 2 ^ + ^ 3 ^ + ^ 4 ^ + ^   1 ^ + ^ 2 ^ + ^ 3 ^ + ^ 4 ^ + ^
G|---------------------------------|---------------------------------|
D|-------------6---6-------6---5---|---------------------------------|
A|---------------------------------|---------------------------------|
E|---------------------------------|---------------------------------|


[Outro]

   1 ^ + ^ 2 ^ + ^ 3 ^ + ^ 4 ^ + ^   1 ^ + ^ 2 ^ + ^ 3 ^ + ^ 4 ^ + ^  
G|---------------------------------|---------------------------------|
D|---------------------------------|---------------------------------|
A|---------------------------------|-----------------------------x-4-|
E|-6-----------x-6-6-----------x-6-|-4-----------x-4-4---------------|

   1 ^ + ^ 2 ^ + ^ 3 ^ + ^ 4 ^ + ^   1 ^ + ^ 2 ^ + ^ 3 ^ + ^ 4 ^ + ^  
G|---------------------------------|---------------------------------|
D|---------------------------------|---------------------------------|
A|---6-6---6---6---6-------x---4---|---6-6---6---6-------8-----------|
E|---------------------------------|---------------------------------|

   1 ^ + ^ 2 ^ + ^ 3 ^ + ^ 4 ^ + ^   1 ^ + ^ 2 ^ + ^ 3 ^ + ^ 4 ^ + ^  
G|---------------------------------|---------------------------------|
D|---------------------------------|---------------------------------|
A|---------------------------------|-----------------------------x-4-|
E|-6-----------x-6-6-----------x-6-|-4-----------x-4-4---------------|

   1 ^ + ^ 2 ^ + ^ 3 ^ + ^ 4 ^ + ^   1 ^ + ^ 2 ^ + ^ 3 ^ + ^ 4 ^ + ^  
G|---------------------------------|---------------------------------|
D|---------------------------------|---------------------------------|
A|---6-6---6---6---6-------x---4---|---6-6---6---6-------------------|
E|---------------------------------|---------------------------------|



************************************

| x   Dead note
| h   Hammer-on
| p   Pull-off

************************************

            
            
Suggest correction
Creating personal tab
Creating personal tab
You can edit any tab online and save it as your Personal.

You can edit, replace or remove any tab part or add personal notes – all changes will be seen only by you.

Personal tabs can be accessed anytime from any device, even offline.
Learn more »
Give kudos to tab author, rate the tab!
1 2 3 4 5
comments
print report bad tab
guest
You may want to rate the tab now too:
select rating
Wanna post a correction for this tab? Suggest correction