Oops, an error
Loading. Please wait.

Meri Awaz Suno tab

version 2
version 2

Whole song

by Junoon
2,809 views 1 this week
1 commentread comment
1 2 3 4 5
2 more votes to show rating
add to favorites
×
Save as Personal and add changes to this tab that will be seen only by you. Learn more ›
×
You can save this tab as Personal to edit and correct it or add notes. All changes will be seen only by you. Learn more »
launch autoscroll
font size
0
reset
how to read this tab
guitar tuner
edit
Autoscroll
slow
fast
+/-
esc
set tempo
stop
Author
Meri Awaz Suno (Azaadi)

	Am		Dm		C		G		 E
--------0---------------1---------------0---------------3----------------0-----------
------1---1-----------3---3-----------1---1-----------3---3------------0---0---------
----2-------2-------2------ 2-------0-------0-------0-------0--------1-------1-------
------------------0------------------------------------------------------------------
--0------------------------------3--------------------------------2------------------
--------------------------------------------------3----------------------------------

Pick the chords as shown above:

     Am		    Dm   Am
Meri awaz suno mujhe azad karo
     C	G	E   Am
Meri awaz suno insaf do

Use bar chords here:
Am Am Am D D D
Am Am Am then

Riff 1

e -----------------------------------------------------------
B -----------------------------------------------------------
G -----------------------------------------------------------
D ----------5------------------------------------------------
A ----3---3---5--3-------------------------------------------
E --5---5----------------------------------------------------

Repeat 

	Am		    Dm    Am
Meri awaz suno mujhe azad karo
	C    G     E   Am
Meri awaz suno insaf do
  Am	 C G  E  Am
Azad karo Insaf do

		  Am	   C	
Karon kuon ghulami teri
    Dm            Am
Ghulami teri kuon zalaman
	      Am  E	  C
Mangon na Khudai teri
    Dm               C	G	E
Mangon men to haq zalama

Meri awaz suno mujhe azad karo
Meri awaz suno insaf do
Azad karo Insaf do
Tere sang zamana sara 
Khuda he mere sang zalama
Meri awaz suno mujhe azad karo
Meri awaz suno insaf do
Azad karo Insaf do

Tabbed by: The Unaffectionate Nomster (TUN)
Any criticisms, corrections, and/or suggestions are welcome.
Please e-mail me at: nomibaby@hotmail.com.

            
            
Suggest correction
Creating personal tab
Creating personal tab
You can edit any tab online and save it as your Personal.

You can edit, replace or remove any tab part or add personal notes – all changes will be seen only by you.

Personal tabs can be accessed anytime from any device, even offline.
Learn more »
Give kudos to tab author, rate the tab!
1 2 3 4 5
comments
print report bad tab
1 comment total.
0 reply
nirvanainchains 0 Oct 07, 2002 08:00 PM

before the solo, when ali sings " ga ma ni dha ..", play this piece 3 times

e----------------------------------
B-----8-7-9-10--------8-7-9-10-8-7-
G-5-7-------------5-7--------------
D----------------------------------
A----------------------------------
E----------------------------------

guest
You may want to rate the tab now too:
select rating
Wanna post a correction for this tab? Suggest correction