Oops, an error
Loading. Please wait.

In The House bass

1,026 views 1 this week
no commentswrite comment
1 2 3 4 5
3 more votes to show rating
add to favorites
×
Save as Personal and add changes to this tab that will be seen only by you. Learn more ›
×
You can save this tab as Personal to edit and correct it or add notes. All changes will be seen only by you. Learn more »
launch autoscroll
font size
0
reset
guitar tuner
edit
Autoscroll
slow
fast
+/-
esc
set tempo
stop
Difficulty
Jurassic 5 - In The House from the album Feedback

Worked this out on an acoustic guitar so probably not the best.
Expect its in another key. But you'll get the idea.

G----------------------------------------------don't think-----|
D-------------------------9-8-7----------------this bits-------|
A---7---------------------------10-------------played on the---|
E----------------------------------------------bass------------|


                                         <    >
G-----------------9----9-9-------------------------------------|
D--------------------------------------------------repeat------|
A---7-9-10------7----7--------9-9-10------9-10-----------------|
E--------------------------------------------------------------|

 might just be:

G-----------------9----9-9-------------------9-----------------|
D--------------------------------------------------repeat------|
A---7-9-10------7----7--------9-9-10------7--------------------|
E--------------------------------------------------------------|

or maybe something else. Suggestions welcome.

And this happens somewhere in the middle:

G------11----------9----9-9-------11---------------------------|
D--------------------------------------------------------------|
A---7-9--10------7----7---------9----10----9-10-7-----rest-----|
E--------------------------------------------------------------|


Thats one funky bassline! Enjoy.

Comments and corrections welcome at haines_simon@hotmail.com

            
            
Suggest correction
Creating personal tab
Creating personal tab
You can edit any tab online and save it as your Personal.

You can edit, replace or remove any tab part or add personal notes – all changes will be seen only by you.

Personal tabs can be accessed anytime from any device, even offline.
Learn more »
Give kudos to tab author, rate the tab!
1 2 3 4 5
comments
print report bad tab
guest
Wanna post a correction for this tab? Suggest correction