Oops, an error
Loading. Please wait.

Dvno bass

by Justice
17,195 views 30 this week
1 commentread comment
1 2 3 4 5
x 7
add to favorites
×
Save as Personal and add changes to this tab that will be seen only by you. Learn more ›
×
You can save this tab as Personal to edit and correct it or add notes. All changes will be seen only by you. Learn more »
launch autoscroll
font size
0
reset
guitar tuner
edit
Autoscroll
slow
fast
+/-
esc
set tempo
stop
Author
Hello.. justice are a frikin sweet electro band from france... i have no
idea how they made this funky bass line with there laptops and what not.
this is my version of the song. sorry if tehres any mistakes.. but enjoy 

NOTE: Most of the notes are slapped in this song!!! its just when patterns
are repeated some are slapped and some are not :\ 

Normal tuning 
G|
D|
A|
E|

Intro           x3 fill
|-------|---------|------6h8----|
|----8--|------8--|--6h8-----6--|
|-------|---------|-------------|
|--6----|--4--6---|-------------|
                     s   p   s 

|---------------------------|------6h8----|
|----8------4------5-----4--|--6h8-----6--|
|---------------------------|-------------|
|--6---4--4---4--3---3-2----|-------------|
                               s   p   s

|---------------------------|------6h8----|
|----8------4------5-----4--|--6h8-----6--|
|---------------------------|-------------|
|--6---4--4---4--3---3-2----|-------------|
                               s   p   s

|---------------------------|------6h8----|
|----8------4------5-----4--|--6h8-----6--|
|---------------------------|-------------|
|--6---4--4---4--3---3-2----|-------------|
                               s   p   s

in the chorus, every note should b played to every beat of the bass drum.
thi is so it will accent its vibe. Or you could play a muted note at the
start of evry 1st beat and only play the 2nd beat 

chorus
|-------------------------------------------------------------|
|-------------------------------------------------------------|
|-------------------------------------------------------------| x2
|-6-6-6-6-6-6-4-4-4-4-4-4-4-4-3-3--3-3-3-3-3-4-4--4-4-4-4-4---|

|--------------------|-----------------|
|----8--------8----4-|---5---6----4----|
|--------------------|--------------6~-| x2
|-6-----4--6-----4---|-3---4---2-------|
  s  p  s  s  p  s p   s p s p s  p s 

for the interlude, listen carefully to the timing and get the beats
on and off the bass drum

interlude
|-------------------------------------|
|-------------------------------------|
|-------------------------------------|
|-66-666-6-44-444-4-33-333-3-44-444-4-|

|---------------------------------------|
|------------------5-6-5------4---------|
|--------------------------------6------|
|-66-666-6-4444--3-------3--2------x-4--|
                 s p p p s  s p  s   s 

Vocals....

verse
|--------------------|-----------------|
|----8--------8----4-|---5---6----4----|
|--------------------|--------------6~-| x4
|-6-----4--6-----4---|-3---4---2-------|
  s  p  s  s  p  s p   s p s p s  p s 

vocals....

for the 2nd chorus it sound like the bass is played in every beat
not the beat of the bass drum. but you can play anyway you want :)

chorus
|-------------------------------------------------------------|
|-------------------------------------------------------------|
|-------------------------------------------------------------| x2
|-6-6-6-6-6-6-4-4-4-4-4-4-4-4-3-3-3-3-3-3-3-3-4-4-4-4-4-4-4-4-|

interlude
|-------------------------------------|
|-------------------------------------|
|-------------------------------------| x4
|-66-666-6-44-444-4-33-333-3-44-444-4-|

|---------------------------------------|
|------------------5-6-5------4---------|
|--------------------------------6------|
|-66-666-6-4444--3-------3--2------x-4--|

bass solo anyone ?

Am very sorry... but my ears arent that good to tab this bass solo 
out :( i need to develope them some more. but after listening to the
bass solo over and over again, this is my version of it!
 
NOTE: this is A.J's version of the bass solo. sorry if it aint that 
grate :\ 

but if you wanna jam along the key is in B and just move two semi
tones up and down for a bass solo :D enjoy 

|-----------------------------------------------------------|
|-------------------8-6-----8-6-6h8------------x--------6-8-|
|----------4-4----------------------5-6----4--------4h6-----|
|-6-6-x-4h6-----6--6----x-6-------------4h6 -6---4h6--------|

|---------------------------------------------------------------------|
|---8-8---8---x--------5-5-6-6---5-----8-------------------8-6---8-6--|
|------------------------------5---4h8------------4-4-----------------|
|-6--x---6--x---4-4-3---------------------6-6-4h6-----6--6-----6------|

|--------------------------------------------------------|
|--6h8-----5-----6-------5---------6--6-6h8---8-6-8-6h8--|
|------------4h6---4-----------4h6-----------------------|
|------x-3-----------x-3---4h6------x-------6------------|

|---------------------------------------------|
|----------------6----8---5-5---8---6---------|
|---------5-4h6----------------------x4-------|
|-4-4-3-3-----------6---3-----6---4-----6~----|

            
            
Suggest correction
Creating personal tab
Creating personal tab
You can edit any tab online and save it as your Personal.

You can edit, replace or remove any tab part or add personal notes – all changes will be seen only by you.

Personal tabs can be accessed anytime from any device, even offline.
Learn more »
comments
print report bad tab
1 comment total.
0 reply
everettsmark 10 Oct 28, 2017 04:58 PM

(Xavier played the baseline on his electric bass, friend! He's very talented!)

guest
You may want to rate the tab now too:
select rating
Wanna post a correction for this tab? Suggest correction