Oops, an error
Loading. Please wait.

Beauty And A Beat bass

version 1
version 1

Whole song

19,876 views 12 this week
no commentswrite comment
1 2 3 4 5
x 8
add to favorites
×
Save as Personal and add changes to this tab that will be seen only by you. Learn more ›
×
You can save this tab as Personal to edit and correct it or add notes. All changes will be seen only by you. Learn more »
launch autoscroll
font size
0
reset
guitar tuner
edit
Autoscroll
slow
fast
+/-
esc
set tempo
stop
Author
Difficulty
intermediate
[Intro]
(Bass comes in at 0:07)
G|-----------10------------------------------------------------------------------|
D|---------------------------------12----10--------------------------------------|    
A|-8-8-8-8-8----8----------------------------------------------------------------|
E|----------------8-10-10-10-10-10----10-----------------------------------------|

G|-------------------------------------12-14-16-17-------------------------------|
D|----------------------10-------------------------------------------------------|
A|-12-12-12-12-12-12-12----10-10-10-10-------------------------------------------|
E|-------------------------------------------------------------------------------|

[Verse 1]                                                                                    
G|-----------10------------------------------------------------------------------|   
D|---------------------------------12----10--------------------------------------|    
A|-8-8-8-8-8----8----------------------------------------------------------------|    
E|----------------8-10-10-10-10-10----10-----------------------------------------|    
                                                                                    (x4)
G|-------------------------------------12-14-16-17-------------------------------|    
D|----------------------10-------------------------------------------------------|    
A|-12-12-12-12-12-12-12----10-10-10-10-------------------------------------------|    
E|-------------------------------------------------------------------------------|  

[Chorus 1A]
G|-------------------------------------------------------------------------------|
D|-------------------------------------------------------------------------------|
A|---8---8---8---8---10---10---10---10---12---12---12---12---15---15---15---15---|
E|-------------------------------------------------------------------------------|

G|-------------------------------------------------------------------------------|
D|-------------------------------------------------------------------------------|
A|---8---8---8---8---10---10---10---10---5---5---5---5---3---3---3---3-----------|
E|-------------------------------------------------------------------------------|

G|-------------------------------------------------------------------------------|
D|-----------5-----------------------------------------------10-12-14------------|
A|-------------------------------2-----------------------------------------------|
E|-1-1-1-1-1---1-5-3-3-3-3-3-3-3---5-5-5-5-5-5-5-3-8-8-8-8-8---------------------|

G|-----------10--------------------12----16--------------------------------------|
D|-------------------------------------------------------------------------------|
A|-8-8-8-8-8----8---10-10-10-10-10----10-----------------------------------------|
E|----------------8--------------------------------------------------------------|

G|----------------------------------------17-19-21-------------------------------|
D|-------------------------------------------------------------------------------|
A|-12-12-12-12-12-12-12-10-15-15-15-15-15----------------------------------------|
E|-------------------------------------------------------------------------------|

[Chorus 1B]
G|--------------------------------9----------------------------------------------|
D|----------------------------10-------------------------------------------------|
A|-------------------------------------------------------------------------------|
E|-5-5-5-5-5-------5-5-5-5-5-----------------------------------------------------|

G|---------------------------------12-10p9---------------------------------------|
D|----------------------------9-10--------12p10p9--------------------------------|
A|-------------------------12--------------------10------------------------------|
E|-5-5-5-5-5-------5-5-5-5-------------------------------------------------------|

G|-----------------------------16h17p16------------------------------------------|
D|-------------------------------------17----------------------------------------|
A|---------------------------------------15--------------------------------------|
E|-5-5-5-5-5-------5-5-5-5-5-----------------------------------------------------|

G|-------------------------------------------------------------------------------|
D|-------------------------------------------------------------------------------|
A|-------------------------------------------------------------------------------|
E|-5-5-5-5-5-------5-5-5-5-5-----------------------------------------------------|

[Verse 1]                                                                                    
G|-----------10------------------------------------------------------------------|   
D|---------------------------------12----10--------------------------------------|    
A|-8-8-8-8-8----8----------------------------------------------------------------|    
E|----------------8-10-10-10-10-10----10-----------------------------------------|    
                                                                                    (x4)
G|-------------------------------------12-14-16-17-------------------------------|    
D|----------------------10-------------------------------------------------------|    
A|-12-12-12-12-12-12-12----10-10-10-10-------------------------------------------|    
E|-------------------------------------------------------------------------------|  

[Chorus 1A]
G|-------------------------------------------------------------------------------|
D|-------------------------------------------------------------------------------|
A|---8---8---8---8---10---10---10---10---12---12---12---12---15---15---15---15---|
E|-------------------------------------------------------------------------------|

G|-------------------------------------------------------------------------------|
D|-------------------------------------------------------------------------------|
A|---8---8---8---8---10---10---10---10---5---5---5---5---3---3---3---3-----------|
E|-------------------------------------------------------------------------------|

G|-------------------------------------------------------------------------------|
D|-----------5-----------------------------------------------10-12-14------------|
A|-------------------------------2-----------------------------------------------|
E|-1-1-1-1-1---1-5-3-3-3-3-3-3-3---5-5-5-5-5-5-5-3-8-8-8-8-8---------------------|

G|-----------10--------------------12----16--------------------------------------|
D|-------------------------------------------------------------------------------|
A|-8-8-8-8-8----8---10-10-10-10-10----10-----------------------------------------|
E|----------------8--------------------------------------------------------------|

G|----------------------------------------17-19-21-------------------------------|
D|-------------------------------------------------------------------------------|
A|-12-12-12-12-12-12-12-10-15-15-15-15-15----------------------------------------|
E|-------------------------------------------------------------------------------|

[Bridge]
G|-----------10---------------9---12---------------------------------------------|
D|-------------------------------------------------------------------------------|
A|-8-8-8-8-8----8---7-7-7-7-7---7------------------------------------------------|
E|----------------8--------------------------------------------------------------|

G|-------------------------------------------------------------------------------|
D|----------------------9--------------------------------------------------------|
A|-12-12-12-12-12-12-12---12-12-12-12-10-10-10-10--------------------------------|
E|-------------------------------------------------------------------------------|

G|-----------10---------------9---12---------------------------------------------|
D|-------------------------------------------------------------------------------|
A|-8-8-8-8-8----8---7-7-7-7-7---7------------------------------------------------|
E|----------------8--------------------------------------------------------------|

G|-------------------------------------------------------------------------------|
D|----------------------10-------------------------------------------------------|
A|-12-12-12-12-12-12-12----12\---------------------------------------------------|
E|-------------------------------------------------------------------------------|

G|-----------10---------------9---12---------------------------------------------|
D|-------------------------------------------------------------------------------|
A|-8-8-8-8-8----8---7-7-7-7-7---7------------------------------------------------|
E|----------------8--------------------------------------------------------------|

G|-------------------------------------------------------------------------------|
D|----------------------9--------------------------------------------------------|
A|-12-12-12-12-12-12-12---12-12-12-12-10-10-10-10--------------------------------|
E|-------------------------------------------------------------------------------|

G|-----------10---------------9---12---------------------------------------------|
D|-------------------------------------------------------------------------------|
A|-8-8-8-8-8----8---7-7-7-7-7---7------------------------------------------------|
E|----------------8--------------------------------------------------------------|

G|------------------------------14-16-17-----------------------------------------|
D|----------------------9----14--------------------------------------------------|
A|-12-12-12-12-12-12-12---12-----------------------------------------------------|
E|-------------------------------------------------------------------------------|

[Chorus 3A]
G|-------------------------------------------------------------------------------|
D|-----------5-----------------------------------------------10-12-14------------|
A|-------------------------------2-----------------------------------------------|
E|-1-1-1-1-1---1-5-3-3-3-3-3-3-3---5-5-5-5-5-5-5-3-8-8-8-8-8---------------------|

G|-------------------------------------------------------------------------------|
D|-----------5---------------5---9---------------------------10-12-14------------|
A|-------------------------------------------------------------------------------|
E|-1-1-1-1-1---1-5-3-3-3-3-3---3---5-5-5-5-5-5-5-3-8-8-8-8-8---------------------|
                                                                                    
G|-----------10--------------------12----16--------------------------------------|   
D|-------------------------------------------------------------------------------|    
A|-8-8-8-8-8----8---10-10-10-10-10----10-----------------------------------------|    
E|----------------8--------------------------------------------------------------|    
                                                                                     (x2)
G|----------------------------------------17-19-21-------------------------------|    
D|-------------------------------------------------------------------------------|    
A|-12-12-12-12-12-12-12-10-15-15-15-15-15----------------------------------------|    
E|-------------------------------------------------------------------------------|


************************************

| p  Pull-off
| h  Hammer-on
| \  Slide down

************************************

            
            
Suggest correction
Creating personal tab
Creating personal tab
You can edit any tab online and save it as your Personal.

You can edit, replace or remove any tab part or add personal notes – all changes will be seen only by you.

Personal tabs can be accessed anytime from any device, even offline.
Learn more »
comments
print report bad tab
guest
You may want to rate the tab now too:
select rating
Wanna post a correction for this tab? Suggest correction