Oops, an error
Loading. Please wait.
We have Chord Pro version of Sorry.
It's the closest thing you can get to the original song and it has interactive parts. Check out the tab »
×
9,532 views 15 this week
2 commentsread comments
1 2 3 4 5
x 17
add to favorites
×
Save as Personal and add changes to this tab that will be seen only by you. Learn more ›
×
You can save this tab as Personal to edit and correct it or add notes. All changes will be seen only by you. Learn more »
launch autoscroll
font size
0
reset
how to read this tab
guitar tuner
edit
Autoscroll
slow
fast
+/-
esc
set tempo
stop
e|--------------------------------------------------------------------------|
B|--------------------------------------------------------------------------|
G|-----1----3-----3---3---0---1----3---3--3---3--1---0----------------------|
D|-------------------------------------------------------3----5----5--------|
A|--------------------------------------------------------------------------|
E|--------------------------------------------------------------------------|
You gotta go and get angry at all of my honesty

e|--------------------------------------------------------------------------|
B|--------------------------------------------------------------------------|
G|-----1----3-----3---3---0---1----3---3--3---3--1---0----------------------|
D|-------------------------------------------------------3----5----5--------|
A|--------------------------------------------------------------------------|
E|--------------------------------------------------------------------------|
You know I try but I don't do well with apologies

e|--------------------------------------------------------------------------|
B|--------------------------------------------------------------------------|
G|-----1----3-----3---3---0---1----3---3--3---3--1---0----------------------|
D|-------------------------------------------------------3----5----5--------|
A|--------------------------------------------------------------------------|
E|--------------------------------------------------------------------------|
I hope I don't run out of time could someone call the referee?

e|--------------------------------------------------------------------------|
B|--------------------------------------------------------------------------|
G|-------------------0---------1---0------0------1------0-------------------|
D|---------1---3----------1-----------------------------------3-------------|
A|--------------------------------------------------------------------------|
E|--------------------------------------------------------------------------|
Cause I don't need one more shot at forgiveness.

e|--------------------------------------------------------------------------|
B|--------------------------------------------------------------------------|
G|-----1----3-----3---3---0---1----3---3--3---3--1---0----------------------|
D|-------------------------------------------------------3----5----5--------|
A|--------------------------------------------------------------------------|
E|--------------------------------------------------------------------------|
I know you know that I made those mistakes maybe once or twice

e|--------------------------------------------------------------------------|
B|--------------------------------------------------------------------------|
G|-----1----3-----3---3---0---1----3---3--3---3--1---0----------------------|
D|-------------------------------------------------------3----5----5--------|
A|--------------------------------------------------------------------------|
E|--------------------------------------------------------------------------|
By once or twice I mean maybe a couple of hundred times

e|--------------------------------------------------------------------------|
B|--------------------------------------------------------------------------|
G|-----1----3-----3---3---0---1----3---3--3---3--1---0----------------------|
D|-------------------------------------------------------3----5----5--------|
A|--------------------------------------------------------------------------|
E|--------------------------------------------------------------------------|
Let me oh let me redeem oh redeem oh myself tonight

e|--------------------------------------------------------------------------|
B|--------------------------------------------------------------------------|
G|-------------------0---------1---0------0------1------0-------------------|
D|---------1---3----------1-----------------------------------3-------------|
A|--------------------------------------------------------------------------|
E|--------------------------------------------------------------------------|
Cause I don't need one more shot at second chances.

e|-------------------------------------------------3------------------------|
B|---------4-----4----4----4------------4------6----------------------------|
G|----5----------------------------3----------------------------------------|
D|--------------------------------------------------------------------------|
A|--------------------------------------------------------------------------|
E|--------------------------------------------------------------------------|
Is it too late now to say sorry?

e|--------------------------------------------------------------------------|
B|---------4-----4----4----4------------4-----------------------------------|
G|----5----------------------------5----------5----3------------------------|
D|--------------------------------------------------------------------------|
A|--------------------------------------------------------------------------|
E|--------------------------------------------------------------------------|
Cause I'm missing more than just your body


e|-------------------------------------------------3------------------------|
B|---------4-----4----4----4------------4------6----------------------------|
G|----5----------------------------3----------------------------------------|
D|--------------------------------------------------------------------------|
A|--------------------------------------------------------------------------|
E|--------------------------------------------------------------------------|
Is it too late now to say sorry?


e|----------3-----6------3--------------------3-----------------------------|
B|-----6------------------------6-------6-----------6---------4-------------|
G|-------------------------------------------------------3------------------|
D|--------------------------------------------------------------------------|
A|--------------------------------------------------------------------------|
E|--------------------------------------------------------------------------|
Yeah I know all that I let you down


e|----------6-----3----3------3------4-----3--------------------------------|
B|-----4---------------------------------------------4----------------------|
G|----------------------------------------------3---------------------------|
D|--------------------------------------------------------------------------|
A|--------------------------------------------------------------------------|
E|--------------------------------------------------------------------------|
Is it too late now to say sorry now?

            
            
Suggest correction
Creating personal tab
Creating personal tab
You can edit any tab online and save it as your Personal.

You can edit, replace or remove any tab part or add personal notes – all changes will be seen only by you.

Personal tabs can be accessed anytime from any device, even offline.
Learn more »
comments
print report bad tab
2 comments total.
0 reply
Da_Guitar_Hero 10 Dec 06, 2016 07:53 AM

Thank you so much! This is awesome!

0 reply
merikankanen 10 Oct 29, 2017 03:12 PM

..................

guest
You may want to rate the tab now too:
select rating
Wanna post a correction for this tab? Suggest correction