Oops, an error
Loading. Please wait.

Save Him tab

version 2
version 2

Whole song

Interactive

9,629 views 1 this week
no commentswrite comment
1 2 3 4 5
1 last vote to show rating
add to favorites
×
Save as Personal and add changes to this tab that will be seen only by you. Learn more ›
×
You can save this tab as Personal to edit and correct it or add notes. All changes will be seen only by you. Learn more »
launch autoscroll
font size
0
reset
how to read this tab
guitar tuner
edit
Autoscroll
slow
fast
+/-
esc
set tempo
stop
Author
----------------------------------------------------------------------------
			     "Save Him" (album:HOLLY)- Justin Nozuka
----------------------------------------------------------------------------
Tabbed by: Kelly Rickert
Email: ricke1kl@gmail.com

I ABSOLUTELY LOVE THIS SONG, HE PUTS SO MUCH PASSION INTO HIS MUSIC YOU 
CAN JUST FEEL IT AS YOU LISTEN. THIS IS HOW I HEAR THE SONG (slightly
different than previously posted tab) SO IF YOU HAVE ANY QUESTIONS OR
COMMENTS PLEASE FEEL FREE. CONSTRUCTIVE CRITICISM IS THE BEST WAY TO
LEARN, I'M STILL A BEGINNER THOUGH SO PLEASE BE NICE!

Tuning: eBGDAE (standard)

| x  Mute note

BEGINNING/INTRO:
e|---------X-----------------X---------|
B|------6--X--5---5-------3--X--1----2-|
G|------0--X--0---0-------0--X--0----0-|
D|---------X-----------------X---------|
A|--5------X--3-------1------X--0------|
E|---------X-----------------X---------|
					
1ST VERSE:

1ST RIFF -PLAY 3 TIMES:
e|---------x-----------------x-----------------x-----------------x---------|
B|------6--x--6---6-------5--x--5----5------3--x--3---3-------1--x--2----2-|
G|------0--x--0---0-------0--x--0----0------0--x--0---0-------0--x--0----0-|
D|---------x-----------------x-----------------x-----------------x---------|
A|--5------x--5-------3------x--3-------1------x--1-------0------x--0------|
E|---------x-----------------x-----------------x-----------------x---------|


2ND RIFF -PLAY 4 TIMES:
e|---------x-----------------x---------|
B|------6--x--5---5-------3--x--1----1-|
G|------0--x--0---0-------0--x--0----0-|
D|---------x-----------------x---------|
A|--5------x--3-------1------x--0------|
E|---------x-----------------x---------|

CHORUS:

 PLAY 3 TIMES                             
e|---------X-----------------X---------|  
B|------6--X--5---5-------3--X--1----1-|  
G|------0--X--0---0-------0--X--0----0-|  
D|---------X-----------------X---------|  
A|--5------X--3-------1------X--0------|  
E|---------X-----------------X---------|  
 END CHORUS WITH THIS:
e|---------X-----------------X---------|
B|------6--X--5---5-------3--X--2----2-|
G|------0--X--0---0-------0--X--0----0-|
D|---------X-----------------X---------|
A|--5------X--3-------1------X--0------|
E|---------X-----------------X---------|

BRIDGE:
e|---------x-----------------x---------|
B|------6--x--6---6-------6--x--6----6-|
G|------0--x--0---0-------0--x--0----0-|
D|---------x-----------------x---------|
A|--5------x--5-------5------x--5------|
E|---------x-----------------x---------|


2ND VERSE:

1ST RIFF AGIAN -PLAY 2 TIMES
e|---------x-----------------x-----------------x-----------------x---------|
B|------6--x--6---6-------5--x--5----5------3--x--3---3-------1--x--2----2-|
G|------0--x--0---0-------0--x--0----0------0--x--0---0-------0--x--0----0-|
D|---------x-----------------x-----------------x-----------------x---------|
A|--5------x--5-------3------x--3-------1------x--1-------0------x--0------|
E|---------x-----------------x-----------------x-----------------x---------|

2ND RIFF -PLAY 4 TIMES
e|---------X-----------------X---------|
B|------6--X--5---5-------3--X--1----1-|
G|------0--X--0---0-------0--X--0----0-|
D|---------X-----------------X---------|
A|--5------X--3-------1------X--0------|
E|---------X-----------------X---------|


CHORUS:
 PLAY 3 TIMES                             
e|---------X-----------------X---------|  
B|------6--X--5---5-------3--X--1----1-|  
G|------0--X--0---0-------0--X--0----0-|  
D|---------X-----------------X---------|  
A|--5------X--3-------1------X--0------|  
E|---------X-----------------X---------|  
 END CHORUS WITH THIS:
e|---------X-----------------X---------|
B|------6--X--5---5-------3--X--2----2-|
G|------0--X--0---0-------0--X--0----0-|
D|---------X-----------------X---------|
A|--5------X--3-------1------X--0------|
E|---------X-----------------X---------|


3RD VERSE:

1ST RIFF PLAY 2 TIMES
e|---------x-----------------x-----------------x-----------------x---------|
B|------6--x--6---6-------5--x--5----5------3--x--3---3-------1--x--2----2-|
G|------0--x--0---0-------0--x--0----0------0--x--0---0-------0--x--0----0-|
D|---------x-----------------x-----------------x-----------------x---------|
A|--5------x--5-------3------x--3-------1------x--1-------0------x--0------|
E|---------x-----------------x-----------------x-----------------x---------|


2ND RIFF -PLAY 12 TIMES
e|---------x-----------------x---------|
B|------6--x--5---5-------3--x--1----1-|
G|------0--x--0---0-------0--x--0----0-|
D|---------x-----------------x---------|
A|--5------x--3-------1------x--0------|
E|---------x-----------------x---------|


CHORUS:
 PLAY 3 TIMES                             
e|---------X-----------------X---------|  
B|------6--X--5---5-------3--X--1----1-|  
G|------0--X--0---0-------0--X--0----0-|  
D|---------X-----------------X---------|  
A|--5------X--3-------1------X--0------|  
E|---------X-----------------X---------|  
 END CHORUS WITH THIS:
e|---------X-----------------X---------|
B|------6--X--5---5-------3--X--2----2-|
G|------0--X--0---0-------0--X--0----0-|
D|---------X-----------------X---------|
A|--5------X--3-------1------X--0------|
E|---------X-----------------X---------|

BRIDGE:
e|---------x-----------------x---------|
B|------6--x--6---6-------6--x--6----6-|
G|------0--x--0---0-------0--x--0----0-|
D|---------x-----------------x---------|
A|--5------x--5-------5------x--5------|
E|---------x-----------------x---------|

OUTRO -PLAYED SOFTLY:
e|---------x-----------------x-----------------x-----------------x---------|
B|------6--x--6---6-------5--x--5----5------3--x--3---3-------1--x--2----2-|
G|------0--x--0---0-------0--x--0----0------0--x--0---0-------0--x--0----0-|
D|---------x-----------------x-----------------x-----------------x---------|
A|--5------x--5-------3------x--3-------1------x--1-------0------x--0------|
E|---------x-----------------x-----------------x-----------------x---------|

AND HERE ARE THE LYRICS SO YOU CAN SING ALONG AS WELL!!!

She loves him more
He loves her more,
Seems like they won't ever let each other go,
Laughing and kissing it's a match made in heaven
Behind the rings on their fingers
Imprints the ink deep in the inner
That has stained their souls together now
Stained soul mates forever now
Seems like they've made it to the other side where the grass is greener
And the sky is always blue
And it goes on forever and ever but there is only room for two
Deep at night I'm awakened from my dreams,
Next door, yelling cries mercy she is begging please
"Don't end my life you're all I need and darling I will never leave"
And then she prayed on her knees, she said 

[Chorus]
"Save him, save him from the hand he that beats me on" [Repeat 4 Times]

[Verse 2]
Dark clouds cover her paradise,
She covers her eyes and hides behind enemy lines,
And she walks through the night with her child in her arms
She's thrown back hostage'd
See twenty years ago when she was just ten years old
Lost in imagination she was left alone
And pops had nothing to let his anger on oh he beat her cold
She used to pray on her knees, she said 

[Chorus]

Deep at night I'm awakened from my dreams,
Next door - yelling cries mercy she's begging please,-
"Get up, get up", he brings her to her feet,
And smacks her down till she falls to the ground
And over and over again,
He brings her to her feet till she can no longer stand -
And still the beating never ends
On and on and on it goes
Until he brings out a gun
And says to her "stop crying and bring me my son"
She cries harder and harder
He cries harder and harder
She says "baby please don't do this"
Two shots to her chest
And a blow to his own head
She quickly loses breath and blood rushes to their bed and baby cries his eyes out 

[Chorus]

[Outro]
She loves him more
He loves her more,
Seems like they won't ever let each other go,
Laughing and kissing it's a match made in heaven

            
            
Suggest correction
Creating personal tab
Creating personal tab
You can edit any tab online and save it as your Personal.

You can edit, replace or remove any tab part or add personal notes – all changes will be seen only by you.

Personal tabs can be accessed anytime from any device, even offline.
Learn more »
Give kudos to tab author, rate the tab!
1 2 3 4 5
comments
print report bad tab
guest
You may want to rate the tab now too:
select rating
Wanna post a correction for this tab? Suggest correction