Oops, an error
Loading. Please wait.

Rock Your Body tab

version 1
version 1

Whole song

Interactive

51,056 views 57 this week
no commentswrite comment
1 2 3 4 5
x 9
add to favorites
×
Save as Personal and add changes to this tab that will be seen only by you. Learn more ›
×
You can save this tab as Personal to edit and correct it or add notes. All changes will be seen only by you. Learn more »
launch autoscroll
font size
0
reset
how to read this tab
guitar tuner
edit
Autoscroll
slow
fast
+/-
esc
set tempo
stop
Author
 Rock Your Body             Justin Timberlake
 

Gtr I (E A D G B E) - 'Guitar'
Gtr II (E A D G B E) - 'Synth'
Gtr III (E A D G B E) - 'Piano'
Gtr IV (E A D G B E) - 'Synth'
Gtr V (E A D G B E) - 'Synth'


   Intro
    Q=104
    F                       G                Em
   4/4
    Gtrs I, III
     e S  e    S  S  S  +E   e  S  S  S  S   e  S e S S S E E S S S S  6x
||---8----8-------8--8--(8)-10-10-10-10-10-|-7----7---7-7---7-7-7-7-7--||
||o-10---10------10-10-(10)-12-12-12-12-12-|-8----8---8-8---8-8-8-8-8-o||
||--10---10------10-10-(10)-12-12-12-12-12-|-9----9---9-9---9-9-9-9-9--||
||-----------------------------------------|---------------------------||
||o----------------------------------------|--------------------------o||
||-----------------------------------------|---------------------------||
|
|   Gtr II
|    <                   <                   <
|    H                   H                   W                         6x
||---8------------------10-----------------|-7-------------------------||
||o-10------------------12-----------------|-8------------------------o||
||--10------------------12-----------------|-9-------------------------||
||-----------------------------------------|---------------------------||
||o----------------------------------------|--------------------------o||
||-----------------------------------------|---------------------------||
|
|   Gtr III                                           Gtrs IV, V
|    Q       Q           Q      Q            H.               E   E    6x
||---8-------8----------10-----10----------|-7----------------7--------||
||o-10------10----------12-----12----------|-8--------------------8---o||
||--10------10----------12-----12----------|-9-------------------------||
||-----------------------------------------|---------------------------||
||o----------------------------------------|--------------------------o||
||-----------------------------------------|---------------------------||


 Verse
  F      G       Em
         Gtrs I, II, III
          <      <
   q  Q   H      Q  H.
|--8-----10----|-7--------|
|-10-----12----|-8--------|
|-10-----12----|-9--------|
|--------------|----------|
|--------------|----------|
|--------------|----------|


    F     G       Em
    Gtr II
     <     <      <
     H     H      H             H           5x
||---8----10----|-7-------------------------||
||o-10----12----|-8------------------------o||
||--10----12----|-9-------------------------||
||--------------|---------------------------||
||o-------------|--------------------------o||
||--------------|---------------------------||
|
|   Gtr III
|    H     H      e e s s +s  s s +e  Q  S  5x
||---8----10----|-7---7-7-(7)-7-7-(7)-------||
||o-10----12----|-8---8-8-(8)-8-8-(8)------o||
||--10----12----|-9---9-9-(9)-9-9-(9)-------||
||--------------|---------------------------||
||o-------------|--------------------------o||
||--------------|---------------------------||


   Chorus
    F                       G                Em
    Gtr I
     e S  e    S  S  S  +E   e  S  S  S  S   e  S E S S S E E S S S S  4x
||---8----8-------8--8--(8)-10-10-10-10-10-|-7----7---7-7---7-7-7-7-7--||
||o-10---10------10-10-(10)-12-12-12-12-12-|-8----8---8-8---8-8-8-8-8-o||
||--10---10------10-10-(10)-12-12-12-12-12-|-9----9---9-9---9-9-9-9-9--||
||-----------------------------------------|---------------------------||
||o----------------------------------------|--------------------------o||
||-----------------------------------------|---------------------------||
|
|   Gtr II
|    <                   <                   <
|    H                   H                   W                         4x
||---8------------------10-----------------|-7-------------------------||
||o-10------------------12-----------------|-8------------------------o||
||--10------------------12-----------------|-9-------------------------||
||-----------------------------------------|---------------------------||
||o----------------------------------------|--------------------------o||
||-----------------------------------------|---------------------------||
|
|   Gtr III                                                   Gtrs IV, V
|    Q       Q           Q      Q            H.               E   E    4x
||---8-------8----------10-----10----------|-7----------------7--------||
||o-10------10----------12-----12----------|-8--------------------8---o||
||--10------10----------12-----12----------|-9-------------------------||
||-----------------------------------------|---------------------------||
||o----------------------------------------|--------------------------o||
||-----------------------------------------|---------------------------||


   Verse
    F     G       Em
    Gtr II
     <     <
     H     H      W                         4x
||---8----10----|---------------------------||
||o-10----12----|--------------------------o||
||--10----12----|---------------------------||
||--------------|---------------------------||
||o-------------|--------------------------o||
||--------------|---------------------------||
|
|   Gtr III
|    H     H      e e s s +s  s s +e  Q  S  4x
||---8----10----|-7---7-7-(7)-7-7-(7)-------||
||o-10----12----|-8---8-8-(8)-8-8-(8)------o||
||--10----12----|-9---9-9-(9)-9-9-(9)-------||
||--------------|---------------------------||
||o-------------|--------------------------o||
||--------------|---------------------------||


    F     G       Em
     <     <      <
     H     H      W
||---8----10----|-7-------------------------||
||o-10----12----|-8------------------------o||
||--10----12----|-9-------------------------||
||--------------|---------------------------||
||o-------------|--------------------------o||
||--------------|---------------------------||
|
|   Gtrs II, III
|    H     H      e E s s +s  s s +e  q  S
||---1-----3----|-7---7-7-(7)-7-7-(7)-------||
||o--1-----3----|-8---8-8-(8)-8-8-(8)------o||
||---2-----4----|-9---9-9-(9)-9-9-(9)-------||
||---3-----5----|---------------------------||
||o--3-----5----|--------------------------o||
||---1-----3----|---------------------------||


   Chorus
    $                                                     To Coda
    F               G                     Em
    Gtr I
     e s  e S  S  S  +E   e  S  S  S  S   e  s E S S S E E S S S S  8x
||---8----8----8--8--(8)-10-10-10-10-10-|-7----7---7-7---7-7-7-7-7--||
||o-10---10---10-10-(10)-12-12-12-12-12-|-8----8---8-8---8-8-8-8-8-o||
||--10---10---10-10-(10)-12-12-12-12-12-|-9----9---9-9---9-9-9-9-9--||
||--------------------------------------|---------------------------||
||o-------------------------------------|--------------------------o||
||--------------------------------------|---------------------------||
|
|   Gtr II
|    <                <                   <
|    H                H                   W                         8x
||---8---------------10-----------------|-7-------------------------||
||o-10---------------12-----------------|-8------------------------o||
||--10---------------12-----------------|-9-------------------------||
||--------------------------------------|---------------------------||
||o-------------------------------------|--------------------------o||
||--------------------------------------|---------------------------||
|
|   Gtrs II, III                                       Gtrs IV, V
|    H                H                   H.               E   E    8x
||---1----------------3-----------------|-7----------------7--------||
||o--1----------------3-----------------|-8--------------------8---o||
||---2----------------4-----------------|-9-------------------------||
||---3----------------5-----------------|---------------------------||
||o--3----------------5-----------------|--------------------------o||
||---1----------------3-----------------|---------------------------||


 Interlude
               G               Am/C
  Gtr III
  W            H               H
|----------||------------------------------------------|
|----------||o-3---------------5-----------------------|
|----------||--4---------------5-----------------------|
|----------||--5---------------------------------------|
|----------||o-----------------------------------------|
|----------||------------------------------------------|
|
| Gtr I
| W            s E s E  s   e    S  E   S   S   S  +S
|----------||----------(5)-(5)-----(5)-(5)-(5)-(5)-----|
|----------||o-3---3----5---5-------5---5---5---5--(5)-|
|----------||--4---4----5---5-------5---5---5---5--(5)-|
|----------||--5---5-----------------------------------|
|----------||o-----------------------------------------|
|----------||------------------------------------------|


  D       Em      Am
   E  +S   E  +S  H             +E    3x
|-------------------------------------||
|-10-(10)-12-(12)-5-------------(5)--o||
|-11-(11)-12-(12)-5-------------(5)---||
|-12-(12)-14-(14)-7-------------(7)---||
|-12-(12)-14-(14)-7-------------(7)--o||
|-10-(10)-12-(12)-5-------------(5)---||
|
|  E  +S   E  +S  E +S  s e S s  e    3x
|-------------------------------------||
|-----------------------5-5---5--5---o||
|-11-(11)-12-(12)-5-(5)-5-5---5--5----||
|-12-(12)-14-(14)-7-(7)-7-7---7--7----||
|------------------------------------o||
|-------------------------------------||


                                                            D.S. al Coda
  Cm                            Gsus4         G
  Gtrs II, III
  H           H                 H             h          Wx3          W
|-3-----------3---------------|------------------------|------------|-------|
|-4-----------4---------------|------------------------|------------|-------|
|-5-----------5---------------|-5-------------4--------|------------|-------|
|-5-----------5---------------|-5-------------5--------|------------|-------|
|-3-----------3---------------|------------------------|------------|-------|
|-----------------------------|------------------------|------------|-------|
|
| s E s E s e   S s e S S +S    E +S  E +S  E E +E  Q    Wx3          W
|-3---3---3-3-----3-3---3-(3)-|------------------------|------------|-------|
|-4---4---4-4-----4-4---4-(4)-|------------------------|------------|-------|
|-5---5---5-5-----5-5---5-(5)-|-5-(5)-5-(5)-5-4-(4)----|------------|-------|
|-5---5---5-5-----5-5---5-(5)-|-5-(5)-5-(5)-5-5-(5)----|------------|-------|
|-3---3---3-3-----3-3---3-(3)-|------------------------|------------|-------|
|-----------------------------|------------------------|------------|-------|


   Vocal/Bass Outro
    &
    N.C.
    Gtrs I, III
    q  q  q  Q    E E S S +S  S S +E  Q  S     Wx6
||--------------|---------------------------||--------*|
||o-------------|--------------------------o||--------*|
||--------------|---------------------------||--------*|
||--5--5--7-----|-2---2-2-(2)-2-2-(2)-------||--------*|
||o-------------|--------------------------o||--------*|
||--------------|---------------------------||--------*|




            
            
Suggest correction
Creating personal tab
Creating personal tab
You can edit any tab online and save it as your Personal.

You can edit, replace or remove any tab part or add personal notes – all changes will be seen only by you.

Personal tabs can be accessed anytime from any device, even offline.
Learn more »
comments
print report bad tab
guest
You may want to rate the tab now too:
select rating
Wanna post a correction for this tab? Suggest correction