Oops, an error
Loading. Please wait.

The Joy Of Conventions chords

version 1
version 1

Whole song

26,437 views 201 this week
3 commentsread comments
1 2 3 4 5
x 53
add to favorites
×
Save as Personal and add changes to this tab that will be seen only by you. Learn more ›
×
You can save this tab as Personal to edit and correct it or add notes. All changes will be seen only by you. Learn more »
launch autoscroll
font size
0
reset
transpose
0
reset
simplify chords
display chords
guitar tuner
edit
Autoscroll
slow
fast
+/-
esc
set tempo
stop
Strumming
There is no strumming pattern for this song yet. and get +5 IQ
Capo 6

Intro:

e|-----2-----------2------------2--2-------2---|
B|-----3-----------3------------3--3-----3-----|
G|-----2-----------0------------0--0----0------|
D|--0-------0---2------------------------------|
A|-----------------------0---2-----------------|
E|---------------------------------------------|


e|-----2-----------2------------2--2-----------|
B|-----3-----------3------------3--3-----------|
G|-----2-----------0------------0--0-----------|
D|--0-------0---2------------------------------|
A|-----------------------0---2-----------------|
E|---------------------------------------------|



Verse: 

e|-----2-----------2------------2--2-----------|
B|-----3-----------3------------3--3-----------|
G|-----2-----------0------------0--0-----------|
D|--0-------0---2------------------------------|X6 [once per line]
A|-----------------------0---2-----------------|
E|---------------------------------------------|


Before the music starts I'm right beside you.

The fire is growing, The fire is growing

The world in chaos, but here we got peace.

And we're just starting, we're just starting. 

Yeah!

Yeah!



Chorus:

G                      A                                D               Dsus4  D  Dsus2
We are sisters, we are brothers, sons and daughters and more 

                                                                e|---2----3----2----0-----|
                                                                B|---3----3----3----3-----|
                                                                G|---2----2----2----2-----|
                                                                D|---0----0----0----0-----|
                                                                A|------------------------|
                                                                E|------------------------|




G                   A                              D             Dsus4  D  Dsus2
and I love you even though I never met you before, yeah

G                      A                                D               Dsus4  D  Dsus2
We are sisters, we are brothers, sons and daughters and more 

G                   A                        [repeat intro]             
and I love you even though I never met you before. 


e|-----2-----------2------------2--2-------2---|
B|-----3-----------3------------3--3-----3-----|
G|-----2-----------0------------0--0----0------|
D|--0-------0---2------------------------------|
A|-----------------------0---2-----------------|
E|---------------------------------------------|


e|-----2-----------2------------2--2-----------|
B|-----3-----------3------------3--3-----------|
G|-----2-----------0------------0--0-----------|
D|--0-------0---2------------------------------|
A|-----------------------0---2-----------------|
E|---------------------------------------------|



Verse:

e|-----2-----------2------------2--2-----------|
B|-----3-----------3------------3--3-----------|
G|-----2-----------0------------0--0-----------|
D|--0-------0---2------------------------------| X4
A|-----------------------0---2-----------------|
E|---------------------------------------------|

I'm on the edge of a human sea,

and the tide is in.

My eyes are surfing on unfamiliar faces.

and still I know them, they're family.



e|-----2-----------2------------2--2-------2---|
B|-----3-----------3------------3--3-----3-----|
G|-----2-----------0------------0--0----0------|
D|--0-------0---2------------------------------|
A|-----------------------0---2-----------------|
E|---------------------------------------------|



e|-----2-----------2------------2--2-----------|
B|-----3-----------3------------3--3-----------|
G|-----2-----------0------------0--0-----------|
D|--0-------0---2------------------------------| X4
A|-----------------------0---2-----------------|
E|---------------------------------------------|

You wave at me from across the stadium, 

What a beautiful sight!
 
I feel refreshed like a new born baby.

If I'm not careful, I'll start to cry

 

Chorus:

G                      A                                D               Dsus4  D  Dsus2
We are sisters, we are brothers, sons and daughters and more 


G                   A                         Bm                    Dsus4  D  Dsus2
and I love you even though I never met you before, yeah

G                      A                                     D               Dsus4  D  Dsus2
We are sisters, we are brothers, sons and daughters and more 

G                   A                        [repeat intro]             
and I love you even though I never met you before. 


e|-----2-----------2------------2--2-------2---|
B|-----3-----------3------------3--3-----3-----|
G|-----2-----------0------------0--0----0------|
D|--0-------0---2------------------------------|
A|-----------------------0---2-----------------|
E|---------------------------------------------|

 
Bridge:

Bm   G       D     Dsus4  D  Dsus2
Give me your hand.

Bm            G     D     Dsus4  D  Dsus2
We're in the same fight.

Bm   G        D     Dsus4  D  Dsus2
You give me strength.

Bm          G [<-single strum for both chords]         
To carry on towards eternal life.


e|-----2-----------2------------2--2-------2---|
B|-----3-----------3------------3--3-----3-----|
G|-----2-----------0------------0--0----0------|
D|--0-------0---2------------------------------|
A|-----------------------0---2-----------------|
E|---------------------------------------------|


e|-----2-----------2------------2--2-----------|
B|-----3-----------3------------3--3-----------|
G|-----2-----------0------------0--0-----------|
D|--0-------0---2------------------------------|
A|-----------------------0---2-----------------|
E|---------------------------------------------|
 

Chorus:

G                      A                                D               Dsus4  D  Dsus2
We are sisters, we are brothers, sons and daughters and more 


G                   A                          Bm                  Dsus4  D  Dsus2
and I love you even though I never met you before, yeah

G                      A                                     D               Dsus4  D  Dsus2
We are sisters, we are brothers, sons and daughters and more 

G                   A                        [repeat intro]             
and I love you even though I never met you before. 


e|-----2-----------2------------2--2-------2---|
B|-----3-----------3------------3--3-----3-----|
G|-----2-----------0------------0--0----0------|
D|--0-------0---2------------------------------|
A|-----------------------0---2-----------------|
E|---------------------------------------------|


e|-----2-----------2------------2--2-----------|
B|-----3-----------3------------3--3-----------|
G|-----2-----------0------------0--0-----------|
D|--0-------0---2------------------------------|
A|-----------------------0---2-----------------|
E|---------------------------------------------|


G  [single strum]   A  [single strum]      Dsus2     D
And I love you even though I never met you before.


************************************
Enjoy everyone :D

************************************

            
            
Suggest correction
Creating personal tab
Creating personal tab
You can edit any tab online and save it as your Personal.

You can edit, replace or remove any tab part or add personal notes – all changes will be seen only by you.

Personal tabs can be accessed anytime from any device, even offline.
Learn more »
comments
print report bad tab
3 comments total.
0 reply
Gmw0212 10 Apr 19, 2017 09:15 AM

👍

+2 reply
Gmw0212 10 Apr 19, 2017 09:16 AM

This is a great tab! well done!

+2 reply
buckwalt 10 Jun 20, 2017 09:06 PM

Great job

guest
You may want to rate the tab now too:
select rating
Wanna post a correction for this tab? Suggest correction