Oops, an error
Loading. Please wait.

Bari Improv tab

version 4
version 4

Whole song

Interactive

8,536 views 9 this week
no commentswrite comment
1 2 3 4 5
2 more votes to show rating
add to favorites
×
Save as Personal and add changes to this tab that will be seen only by you. Learn more ›
×
You can save this tab as Personal to edit and correct it or add notes. All changes will be seen only by you. Learn more »
launch autoscroll
font size
0
reset
how to read this tab
guitar tuner
edit
Autoscroll
slow
fast
+/-
esc
set tempo
stop
Author
Bari Improv – Kaki King

Tabbed By: T_T
Email:  heavyrayne@ymail.com

This song is very simple.  I tried to tab out exactly what King slaps in the song. The
and the order in which to play the riffs is at the bottom of the tab.  If I have left
out, E-mail me and I will correct it.  If you have any questions or comments pertinent 
this tab, do not hesitate to E-mail me with them.

Tuning: CGCDGE

E  Tune down 2 steps to get C
A  Tune down 1 step to get  G
D  Tune down 1 step to get  C
G  Tune down 3 steps to get D
B  Tune down 2 steps to get G
e  Tune down 6 steps to get E (A whole octave down)

Intro

E |------------00—00—-0--|
G |---------0--00-00—-0--|
D |--0------0--00-00—-0--|
C |--0—-0---0--00-00—-0--|
G |--0—-00--0--00-00—-0--|
C |--0—-00--0—-00-00-—0--|


Riff 1A (To perform the muting in Riff 1, hit the 12th fret)

E |--0-x-00-x-0-x-0-x-00-x-0-x-0-x--|
G |--0-x-00-x-0-x-0-x-00-x-0-x-0-x--|
D |--0-x-00-x-0-x-0-x-00-x-0-x-0-x--|
C |--0-x-00-x-0-x-0-x-00-x-0-x-0-x--|
G |--0-x-00-x-0-x-0-x-00-x-0-x-0-x--|
C |--0-x-00-x-0-x-0-x-00-x-0-x-0-x--|

Riff 1B
E |----x----x---x---x----x---x---x--|
G |--0-x-00-x-0-x-0-x-00-x-0-x-0-x--|
D |--0-x-00-x-0-x-0-x-00-x-0-x-0-x--|
C |--0-x-00-x-0-x-0-x-00-x-0-x-0-x--|
G |--0-x-00-x-0-x-0-x-00-x-0-x-0-x--|
C |--0-x-00-x-0-x-0-x-00-x-0-x-0-x--|

Riff 2

E |------------------12*--|
G |--------------12*------|
D |----------12*----------|
C |------12*--------------|
G |--12*------------------|
C |-----------------------|

Riff 3

E |---------------------------------------------------|
G |-----------10--------10----------------------------|
D |----10----------10—---------12----12----12----12---|
C |--9—-----9—---9----9-----11----11----11----11------|
G |--5----5----5-5----5------7-----7--7--7-----7------|
C |--5----5----5-5----5------7-----7--7--7-----7------|

Riff 4(To perform the mutes after the open string slaps, hit the 12th
fret; To perform the mutes after slapping the 12th fret, hit the
7th fret)

E |--0-x----x---x-0-x-1212-x-12-x-12-x--|
G |--0-x----x-0-x-0-x-1212-x-12-x-12-x--|
D |--0-x-00-x-0-x-0-x-1212-x-12-x-12-x--|
C |--0-x-00-x-0-x-0-x-1212-x-12-x-12-x--|
G |--0-x-00-x-0-x-0-x-1212-x-12-x-12-x--|
C |--0-x-00-x-0-x-0-x-1212-x-12-x-12-x--|

Riff 5

E |---------------------------------------------------------------|
G |--7p0h7p0h7p0h7p0h7p0h7p0h7p0h7p0h9p0h9p0h9p0h9p0--------12----|
D |--7p0h7p0h7p0h7p0h7p0h7p0h7p0h7p0h9p0h9p0h9p0h9p0—9-12-9-------|
C |------------------------------------------------------------0--|
G |--5-------------------------------7-------------------------0--|
C |--5-------------------------------7-------------------------0--|

Ending

E |-------------------------|
G |--7h9--------------------|
D |------7h9----------------|
C |----------7h9------------|
G |--------------7h9--------|
C |------------------7h9-0--|===Play 2 times


E |---------------------------------------------------------|
G |--7h9-0----------------------7h9-0-----------------------|
D |--------7h9-0----------------7h9-0-7h9-0-----------------|
C |--------------7h9------------------7h9-0-7h9-------------|
G |------------------7h9--------------------7h9-7h9---------|
C |-----------------------7h9-0-----------------7h9--7h9-0--|


Order:

Intro
Riff 1A
Riff 1B
Riff 2
Riff 1B
Riff 2
Riff 1A
Riff 3
Riff 4 (2 times)
Riff 3
Riff 4 (2 times)
Riff 2
Riff 4
Riff 2
Riff 4
Riff 5
Riff 4 (2 times)
Riff 5
Riff 4 (2 times)
Ending


Legend:

x = Mute
h = Hammer on
p = Pull off

            
            
Suggest correction
Creating personal tab
Creating personal tab
You can edit any tab online and save it as your Personal.

You can edit, replace or remove any tab part or add personal notes – all changes will be seen only by you.

Personal tabs can be accessed anytime from any device, even offline.
Learn more »
Give kudos to tab author, rate the tab!
1 2 3 4 5
comments
print report bad tab
guest
You may want to rate the tab now too:
select rating
Wanna post a correction for this tab? Suggest correction