Oops, an error
Loading. Please wait.

Up In The Sky intro tab

version 1
version 1

Intro

  • Slight use of a chorus or delay pedal will give yo... Show more
by Kaleo
262 views 3 this week
no commentswrite comment
1 2 3 4 5
x 3
add to favorites
×
Save as Personal and add changes to this tab that will be seen only by you. Learn more ›
×
You can save this tab as Personal to edit and correct it or add notes. All changes will be seen only by you. Learn more »
launch autoscroll
font size
0
reset
how to read this tab
guitar tuner
edit
Autoscroll
slow
fast
+/-
esc
set tempo
stop
About this tab version
Slight use of a chorus or delay pedal will give you that ambient feel to this intro. Was this info helpful? Yes No
[Intro]
e|--4(\)------|-4---5---------|-5---5---------|-5---4-------|
B|------3-----|---3-----------|---------------|----------5--|
G|------------|----------6----|---6------5----|-------------|
D|------------|---------------|---------------|-------------|
A|------------|---------------|---------------|-------------|
E|--0---------|---------------|------0--(0)---|(0)-(0)------|

e|--4---4----------|-4---5----------|-5---5----------|-5---4-------------|
B|----5-------3----|---3------------|----------------|------------5------|
G|-----------------|-----------6----|---6-------5----|-------------------|
D|-----------------|----------------|----------------|-------------------|
A|-----------------|----------------|----------------|-------------------|
E|-------0---(0)(0)|------0---(0)(0)|------0---(0)---|(0)---(0)------(0)-|


************************************

| (n) Ghost note
| \   Slide down

************************************

            
            
Suggest correction
Creating personal tab
Creating personal tab
You can edit any tab online and save it as your Personal.

You can edit, replace or remove any tab part or add personal notes – all changes will be seen only by you.

Personal tabs can be accessed anytime from any device, even offline.
Learn more »
Give kudos to tab author, rate the tab!
1 2 3 4 5
comments
print report bad tab
guest
You may want to rate the tab now too:
select rating
Wanna post a correction for this tab? Suggest correction