Oops, an error
Loading. Please wait.

Todo De Cabeza tab

284 views 1 this week
no commentswrite comment
1 2 3 4 5
3 more votes to show rating
add to favorites
×
Save as Personal and add changes to this tab that will be seen only by you. Learn more ›
×
You can save this tab as Personal to edit and correct it or add notes. All changes will be seen only by you. Learn more »
launch autoscroll
font size
0
reset
how to read this tab
guitar tuner
edit
Autoscroll
slow
fast
+/-
esc
set tempo
stop
Un saludo a mi gran amor que es para siempre
? Sara Fernández? en Bucaramanga y mis amigos en la guajira
aquí les dejo esto que nos dejo el rey!!
Y alli donde te encuentres gracias kaleth!!!

Comentarios a 3162712602- 3003516230
Tengo ritmos nuevos nueva ola y tropi poop


Intro C9*
        *este acorde se rasguea*

Nota: para que el vallenato suene mas armónico agréguenle mientras
hacen el ritmo las cuerdas siguientes o
mas exacto el lujo característico de este ritmo?:Q

            E |----|----|----|-----------------------------|
            B |----|----|----|-----------------------------|
            G |---0|--0-|---0|--0--------------------------|
            D |----|2---|----|2----------------------------|
            A |----|---3|----|---3-------------------------|
            E |----|----|----|-----------------------------|

/********C9*****/              JUEGO DE BAJOS ESCUCHEN LA CANCION!!
E |----|----|----|----|----|----|------------------------|
B |----|----|-3--|-3--|----|----|------------------------|
G |----|----|----|----|-0--|-0--|-------0--0--0--0-------|
D |----|-2--|----|----|----|----|-2----------------------|caemos en C
A |----|----|-3--|----|----|----|---3----0--2--3---------|
E |----|----|----|----|----|----|------3-----------------|

C
Hay esta es mi canción de despedidaaaa
Em
Será lo mejor para los dooss
F                            61
Pues no soy el dueño de tu vida
60 - 40   Dm
Y lo mas grave
            E |----|----|----|-1h3-------------------------|
            B |----|----|-3--|-----------------------------|
            G |----|-2--|----|-----------------------------|
            D |-0--|----|----|-----------------------------|
            A |----|----|----|-----------------------------|
            E |----|----|----|-----------------------------|

        F               F#              G
No se por que no lo entiende el corazooonnn

C
Hay dime como ago para explicarle
Em
A mi alma envuelta entre la feee
F                             61
Que aunque sea difícil olvidarte
 61- 40-  Dm
Debo intentarlo
            E |----|----|----|-1h3-------------------------|
            B |----|----|-3--|-----------------------------|
            G |----|-2--|----|-----------------------------|
            D |-0--|----|----|-----------------------------|
            A |----|----|----|-----------------------------|
            E |----|----|----|-----------------------------|

 F              F#              G       (Em)
Por que creo que nunca te podre tener  eeh
 F
Si no deseas que me marche
G                         63-50-53   C
Demuestra que igual que yo quieres amarme
       F               F#              G G G rasgeo
Y que también te estas muriendo por besarme hay

Coro
                          C
Hay por que estoy enloqueciendo
                 F
Y tengo todo de cabeza
                  G                               C
Te boy a seguir queriendo aun que t no te des cuenta
ARPEGIO PARA PASAR DE C a Am muy sencillo?
E |----|-----|-----|0--0--0------------------|
B |----|-----|1----|-1--1----------------------|
G |----|0----|--0--|---0--------------------------|
D |----|-----|-----|-----------------------------|
A |-3--|--2--|---0-|-----------------------------|
E |----|-----|-----|-----------------------------|

 53 - 52- 50-     Am
Que el maldito sufriento
                   Em
Es quien acaba mis tristeza
                F                             G
Y de paso a mi conquista le ba quitando las fuerzas
63-50-52-53    C
Que no puedo darte el mundo
                   F
Para nadie es un secreto
(LO MISMO DE ARRIBA)
Yo tan solo te aseguro que que serás mi amor eterno

Quien controle mi futuro y acabe mis tristeza
Donde lo bueno y lo puro se destruye con el tiempo

PUENTE:
     C                               F     F# G tre              C
E |--7--|-9----|-11---|-12--11--12----9---7-5(5)-5-6-7(7)-5-6-7--6-3-0-|
B |--8--|-10---|-12--|--13--12--13----10--8-6(6)-6-7-8----6-7-8-------1-|
G |-----|------|----|-----------------------------|
D |-----|------|----|-----------------------------|
A |-----|------|----|-----------------------------|  X 2
E |-----|------|----|-----------------------------|

Esta parte la hace la guitarra puntera en
la versión en acústico si la han oído?
y luego de puntear estO CAEMOS EN C MAYOR Y
 REPETIMOS La canción

H: hammer
60-52-53: en el diapasón la posición del
bajo para marcar o pasar a otra nota
Tre: mini tremolo en sol mayor

            
            
Suggest correction
Creating personal tab
Creating personal tab
You can edit any tab online and save it as your Personal.

You can edit, replace or remove any tab part or add personal notes – all changes will be seen only by you.

Personal tabs can be accessed anytime from any device, even offline.
Learn more »
Give kudos to tab author, rate the tab!
1 2 3 4 5
comments
print report bad tab
guest
Wanna post a correction for this tab? Suggest correction