Oops, an error
Loading. Please wait.

Aids bass

1,132 views 1 this week
2 commentsread comments
1 2 3 4 5
2 more votes to show rating
add to favorites
×
Save as Personal and add changes to this tab that will be seen only by you. Learn more ›
×
You can save this tab as Personal to edit and correct it or add notes. All changes will be seen only by you. Learn more »
launch autoscroll
font size
0
reset
guitar tuner
edit
Autoscroll
slow
fast
+/-
esc
set tempo
stop
Author
-------------------------------------------------------------------------------
			        A.I.D.S. - Kamikazee
-------------------------------------------------------------------------------

e-mail: giobassist5151@yahoo.com

Tuning: Standard

INTRO PRT 1:
G|----|
D|----|
A|-0~-|
E|----|

INTRO PRT 2:
G|---------------------------------------(4x)-|
D|--------------------------------------------|
A|-4-4-4-4-4-4-4--77777-----------------------|
E|-----------------------5-5-5-5-5-5-5--77777-|
   . . . . . . .         . . . . . . .

G|---------|---------------------------------------(4x)-|
D|---------|--------------------------------------------|
A|-7-5-4-0-|-4-4-4-4-4-4-4--77777-----------------------|
E|---------|-----------------------5-5-5-5-5-5-5--77777-|
             . . . . . . .         . . . . . . .

VERSE 1:
G|---------------------------------------(4x)-|
D|--------------------------------------------|
A|-4-4-4-4-4-4-4--77777-----------------------|
E|-----------------------5-5-5-5-5-5-5--77777-|
   . . . . . . .         . . . . . . .

PRE-VERSE 2:
G|------------------------------------------|
D|------------------------------------------|
A|-777777----------44444----------4-4-4-4---|
E|---------555555---------555555----------5-|
                                  . . . . .

VERSE 2:
G|----|---------------------------------------(4x)-|
D|----|--------------------------------------------|
A|-0~-|-4-4-4-4-4-4-4--77777-----------------------|
E|----|-----------------------5-5-5-5-5-5-5--77777-|
        . . . . . . .         . . . . . . .

PRE-CHORUS:
G|---------|------------------------------------------|
D|---------|------------------------------------------|
A|-7-5-4-0-|-777777----------44444----------4-4-4-4---|
E|---------|---------555555---------555555----------5-|
                                            . . . . .

CHORUS:
G|--------------------------(2x)-|----|
D|-------------------------------|----|
A|-777777----------44444---------|-7~-|
E|---------555555---------555555-|----|

BRIDGE:
G|--------------------------(2x)-|---------|
D|-------------------------------|---------|
A|-77--------------44------------|-7-5-4-0-|
E|---------55-------------55-----|---------|

G|----------------------------------------------------------------| 
D|----------------------------------------------------------------|
A|-4-4-4-4-4-4-4--77777----------------------4-4-4-4-4--77777--7~-|
E|-----------------------5-5-5-5-5--777777---------------------5~-|
   . . . . . . .         . . . . .           . . . . .

CHORUS:
G|--------------------------(2x)-|----|
D|-------------------------------|----|
A|-777777----------44444---------|-7~-|
E|---------555555---------555555-|----|

G|----|
D|----|
A|-7~-|
E|----|

pki rate nmn tnx..
===============================================================================

            
            
Suggest correction
Creating personal tab
Creating personal tab
You can edit any tab online and save it as your Personal.

You can edit, replace or remove any tab part or add personal notes – all changes will be seen only by you.

Personal tabs can be accessed anytime from any device, even offline.
Learn more »
Give kudos to tab author, rate the tab!
1 2 3 4 5
comments
print report bad tab
2 comments total.
+1 reply
No_Falter08 2,414 Mar 02, 2007 11:05 AM

Pkinggan mong mbuti s last prt. ng chorus..may slide ung bass dun at saka may mga bass line dun intro at bridge...

0 reply
gio99 833 Apr 03, 2008 03:44 AM

naupdate na 2..

guest
You may want to rate the tab now too:
select rating
Wanna post a correction for this tab? Suggest correction