Oops, an error
Loading. Please wait.

Directors Cut tab

version 3
version 3

Whole song

Interactive

3,354 views 1 this week
1 commentread comment
1 2 3 4 5
1 last vote to show rating
add to favorites
×
Save as Personal and add changes to this tab that will be seen only by you. Learn more ›
×
You can save this tab as Personal to edit and correct it or add notes. All changes will be seen only by you. Learn more »
launch autoscroll
font size
0
reset
how to read this tab
guitar tuner
edit
Autoscroll
slow
fast
+/-
esc
set tempo
stop
Author
Difficulty
This Tab Is For all  st.rita SenorZ 05-06 Congratz!!!

Standard tuning


Into!

Guitar 1(rythm)
silent muna

Guitar 2(lead/2nd rythm)

e|---------------------------------------|
B|----------10-9-------------------------|
G|---11-9--------------------------------|
D|-9------9------------------------------|
A|---------------------------------------|
E|---------------------------------------|


guitar1

pakitimingan nalang ang # of struming natamad ako mag bilang eh

e|---------------------------------------|
B|---------------------------------------|
G|----9-8-6-4----------------------------|
D|-99-x-x-x-x--7-7-99--------------------|
A|-99-7-6-4-2--x-x-99--------------------|
E|-77----------5-4-77--------------------|

guitar 2 same pathern

Verse:

Guitar 1
e|-0--------------------------------------|
B|-0--------------------------------------|
G|-9--------------------------------------|
D|-9----11--9--7--9-----------------------|
A|-7----11--9--7--9-----------------------|
E|------9---7--5--7-----------------------|

guitar 2 same pathern paren

"pagmulat ng mata agad kong naalala..."

guitar 1
e|---------|
B|---------|
G|---------|
D|--2------|
A|--2------|
E|--0------|

"bigla lang na isip mo ayaw mo na"

tapos intr0 ulet!..

verse 2

guitar 1

 Palm mute
e|----------------------------------------|
B|----------------------------------------|
G|-9--------------------------------------|
D|-9----11--9--7--9-----------------------|
A|-7----11--9--7--9-----------------------|
E|------9---7--5--7-----------------------|
        |_________|
             |
             |_______ distortion

guitar 2 same pathern

refrain:

guitar 1
e|---------------------------------------|
B|---------------------------------------|
G|-66666666666---------------------------|
D|-66666666666-7-7-7-7-------------------|
A|-44444444444-7-7-7-7-------------------|
E|-------------5-5-5-5-------------------|

guitar 2
e|----------------------------------------|
B|----------------------------------------|
G|-66666666666-14-14-14-14----------------|
D|-xxxxxxxxxxx-x--x--x--x-----------------|
A|-44444444444-12-12-12-12----------------|
E|----------------------------------------|

"lumingon sandali lang..."

Chorus:

guitar 1 and 2

e|--------------------------------------------------------------------------|
B|--------------------------------------------------------------------------|
G|-9999999999999999------------------6666666666666666-444444444444444444----|
D|-9999999999999999-7777777777777777-6666666666666666-444444444444444444----|
A|-7777777777777777-7777777777777777-4444444444444444-222222222222222222----|
E|------------------5555555555555555----------------------------------------|

"Sumigaw palabas at sasabihin saiyo ang lahat
tumakbo palayo at iiwanan ang alaala mo"

bridge:

Guitar 1
pickscrape
e|--------------------|
B|--------------------|
G|--------------------|
D|>>>>--22------------|
A|>>>>--22------------|
E|>>>>--00------------|

guitar 1 stays silent

guitar 2

(bypass)

e|----------------------------------------|
B|----------------------------------------|
G|--11-9---11-9---------------------------|
D|-9-----9--------------------------------|
A|----------------------------------------|
E|----------------------------------------|

refrain:

guitar 1
e|---------------------------------------|
B|---------------------------------------|
G|-66666666666---------------------------|
D|-66666666666-7-7-7-7-------------------|
A|-44444444444-7-7-7-7-------------------|
E|-------------5-5-5-5-------------------|

guitar 2
e|----------------------------------------|
B|----------------------------------------|
G|-66666666666-14-14-14-14----------------|
D|-xxxxxxxxxxx-x--x--x--x-----------------|
A|-44444444444-12-12-12-12----------------|
E|----------------------------------------|

"lumingon sandali lang..."

Chorus:

guitar 1 and 2

e|--------------------------------------------------------------------------|
B|--------------------------------------------------------------------------|
G|-9999999999999999------------------6666666666666666-444444444444444444----|
D|-9999999999999999-7777777777777777-6666666666666666-444444444444444444----|
A|-7777777777777777-7777777777777777-4444444444444444-222222222222222222----|
E|------------------5555555555555555----------------------------------------|

"Sumigaw palabas at sasabihin saiyo ang lahat
tumakbo palayo at iiwanan ang alaala mo"

Kung may sugestion kau and coments dont hezitate to text me! 09225475022
the sugestor must have 36-24-36 body! i dont lyk chixilog!! hehe heres my e-mail
punks_n0t_dead_taritz@yahoo.com
dont hesitAte to text

            
            
Suggest correction
Creating personal tab
Creating personal tab
You can edit any tab online and save it as your Personal.

You can edit, replace or remove any tab part or add personal notes – all changes will be seen only by you.

Personal tabs can be accessed anytime from any device, even offline.
Learn more »
Give kudos to tab author, rate the tab!
1 2 3 4 5
comments
print report bad tab
1 comment total.
0 reply
jordankeno23 168 Jul 15, 2007 08:44 AM

dude... dami mali... sori napuna ko...

guest
You may want to rate the tab now too:
select rating
Wanna post a correction for this tab? Suggest correction