Oops, an error
Loading. Please wait.

First Day High bass

4,048 views 3 this week
2 commentsread comments
1 2 3 4 5
2 more votes to show rating
add to favorites
×
Save as Personal and add changes to this tab that will be seen only by you. Learn more ›
×
You can save this tab as Personal to edit and correct it or add notes. All changes will be seen only by you. Learn more »
launch autoscroll
font size
0
reset
guitar tuner
edit
Autoscroll
slow
fast
+/-
esc
set tempo
stop
Author
First Day High Bass Tab by Kamikazee

Tabbed by: Ian Bernard Gilay
Verse 1 and Verse 2 by Rey James Abadies

Hello guys.. I have here a bass tab of First Day High.. I tabbed it because I found out 
there was no bass tab of First Day High, so here it is.. Enjoy.. Rate lng po nyo kung 
nyo tama.. thnx po..

Chorus:
  First day high!	   Nasasabik sa unang   araw ng eskwela
G|---------------------------------------------------------|
D|---------------------------------------------------------|
A|---------------------------------------------------------|
E|--0-0-0-0----------7-7-7-7-7-7-7-7-------4-4-4-4-4-4-4-4-|

   Taas kamay with confidence   Lets do the first day high!
G|---------------------------------------------------------|
D|---------------------------------------------------------|
A|---------------------------------------------------------|
E|--0-0-0-0-0-0-0-0-------2-2-2-2-2------------------------|

Verse 1:
G|-------------------------------------------------------|
D|-------------------------------------------------------|3x
A|-------------------------------------------------------|
E|--3-3-5----5-5-7----7-7-9----7-7-9---------------------|

Chorus:
  First day high!	   Nasasabik sa unang   araw ng eskwela
G|---------------------------------------------------------|
D|---------------------------------------------------------|
A|---------------------------------------------------------|
E|--0-0-0-0----------7-7-7-7-7-7-7-7-------4-4-4-4-4-4-4-4-|

   Taas kamay with confidence   Lets do the first day high!
G|---------------------------------------------------------|
D|---------------------------------------------------------|
A|---------------------------------------------------------|
E|--0-0-0-0-0-0-0-0-------2-2-2-2-2------------------------|

Refrain:
Umaapaw sa talino. . .
G|---------------------|   ---------------------------------|
D|---------------------|   ---------------------------------|
A|--2-2----------------|5x -------2-2-----------------------|
E|------4-4--2-2--0-0--|   -----------4-4--2----------------|

Chorus:
  First day high!	   Nasasabik sa unang   araw ng eskwela
G|---------------------------------------------------------|
D|---------------------------------------------------------|
A|---------------------------------------------------------|
E|--0-0-0-0----------7-7-7-7-7-7-7-7-------4-4-4-4-4-4-4-4-|

   Taas kamay with confidence. Lets do the first day high!
G|----------------------------------------------------------|
D|----------------------------------------------------------|
A|----------------------------------------------------------|
E|--0-0-0-0-0-0-0-0------------2-2-2-2-2----------0-0-0-0---|

  Iba’t iban ang hilig     Magkakasundo sa trip
G|---------------------------------------------------------|
D|---------------------------------------------------------|
A|---------------------------------------------------------|
E|--7-7-7-7-7-7-7-7-------4-4-4-4-4-4-4-4------------------|

     Kung gusto mo sumama    Welcome ka mag first day high
G|---------------------------------------------------------|
D|---------------------------------------------------------|
A|---------------------------------------------------------|
E|--0-0-0-0-0-0-0-0----------2-2-2-2-2---------------------|

Verse 2:
G|-------------------------------------------------------|
D|-------------------------------------------------------|
A|-------------------------------------------------------|
E|--3-3-5----5-5-7----7-7-9----7-7-9---------------------|

G|-------------------------------------------------------|
D|-------------------------------------------------------|
A|-------------------------------------------------------|
E|--3-3-5----5-5-7----7-7-9----7-------------------------|

G|-------------------------------------------------------|
D|-------------------------------------------------------|
A|-------------------------------------------------------|
E|--3-3-5----5-5-7----7-7-9----7-7-9---------------------|

Chorus:
  First day high!	   Nasasabik sa unang   araw ng eskwela
G|---------------------------------------------------------|
D|---------------------------------------------------------|
A|---------------------------------------------------------|
E|--0-0-0-0----------7-7-7-7-7-7-7-7-------4-4-4-4-4-4-4-4-|

   Taas kamay with confidence   Lets do the first day high!
G|---------------------------------------------------------|
D|---------------------------------------------------------|
A|---------------------------------------------------------|
E|--0-0-0-0-0-0-0-0-------2-2-2-2-2------------------------|

Refrain:
G|---------------------|   --------------------------------|
D|---------------------|   --------------------------------|
A|--2-2----------------|5x -------2-2----------------------|
E|------4-4--2-2--0-0--|   -----------4-4--2---------------|

Chorus
First day high!	   Nasasabik sa unang   araw ng eskwela
G|---------------------------------------------------------|
D|---------------------------------------------------------|
A|---------------------------------------------------------|
E|--0-0-0-0----------7-7-7-7-7-7-7-7-------4-4-4-4-4-4-4-4-|

   Taas kamay with confidence. Lets do the first day high!
G|----------------------------------------------------------|
D|----------------------------------------------------------|
A|----------------------------------------------------------|
E|--0-0-0-0-0-0-0-0------------2-2-2-2-2----------0-0-0-0---|

  Iba’t iban ang hilig     Magkakasundo sa trip
G|---------------------------------------------------------|
D|---------------------------------------------------------|
A|---------------------------------------------------------|
E|--7-7-7-7-7-7-7-7-------4-4-4-4-4-4-4-4------------------|

     Kung gusto mo sumama    Welcome ka mag first day high
G|---------------------------------------------------------|
D|---------------------------------------------------------|
A|---------------------------------------------------------|
E|--0-0-0-0-0-0-0-0----------2-2-2-2-2---------------------|

Bridge
F-I-R-S-T  D-A-Y (repeat 2x) (dead string)

    F-I---------------------------------------------------|     R-S-T    D-A-Y
G|--------------------------------------------------------|
D|--------------------------------------------------------|
A|--------------------------------------------------------|
E|--3-3-5----5-5-7----7-7-9-------------------------------|

Chorus:
First day high!	   Nasasabik sa unang   araw ng eskwela
G|---------------------------------------------------------|
D|---------------------------------------------------------|
A|---------------------------------------------------------|
E|--0-0-0-0----------7-7-7-7-7-7-7-7-------4-4-4-4-4-4-4-4-|

   Taas kamay with confidence. Lets do the first day high!
G|---------------------------------------------------------|
D|---------------------------------------------------------|
A|---------------------------------------------------------|
E|--0-0-0-0-0-0-0-0------------2-2-2-2-2-------------------|

  Iba’t iban ang hilig     Magkakasundo sa trip
G|---------------------------------------------------------|
D|---------------------------------------------------------|
A|---------------------------------------------------------|
E|--7-7-7-7-7-7-7-7-------4-4-4-4-4-4-4-4------------------|

     Kung gusto mo sumama    Welcome ka mag first day high
G|---------------------------------------------------------|
D|---------------------------------------------------------|
A|---------------------------------------------------------|
E|--0-0-0-0-0-0-0-0----------2-2-2-2-2---------------------|

Outro:
G|------------------|
D|------------------|
A|--2-2-------------| 2x
E|------4-4--2-2----|


Hello to our band
  -Shakewell-
Ian Bernard Gilay (me) (Guitar 1 and vocals)
Jade Mark Abrea (Guitar 2 and 2nd voice)
Rey James Abadies (Bass)
Jon Alec Solon (Drums)

Thnx for Cindy Rose Nave (my one and only baby)
For giving us or should we say for baptizing our band as shakewell..
Hehehe..^^..trip lng po..thnx again guys..and ty www.ultimate-guitar.com

            
            
Suggest correction
Creating personal tab
Creating personal tab
You can edit any tab online and save it as your Personal.

You can edit, replace or remove any tab part or add personal notes – all changes will be seen only by you.

Personal tabs can be accessed anytime from any device, even offline.
Learn more »
Give kudos to tab author, rate the tab!
1 2 3 4 5
comments
print report bad tab
2 comments total.
0 reply
ganda_qw 10 Oct 07, 2006 08:13 PM

ang layo naman...

0 reply
un_stairway 72 Jan 16, 2007 02:34 PM

parang hindi tama verse..

guest
You may want to rate the tab now too:
select rating
Wanna post a correction for this tab? Suggest correction