Oops, an error
Loading. Please wait.

Halik tab

version 4
5,076 views 1 this week
3 commentsread comments
1 2 3 4 5
2 more votes to show rating
add to favorites
×
Save as Personal and add changes to this tab that will be seen only by you. Learn more ›
×
You can save this tab as Personal to edit and correct it or add notes. All changes will be seen only by you. Learn more »
launch autoscroll
font size
0
reset
how to read this tab
guitar tuner
edit
Autoscroll
slow
fast
+/-
esc
set tempo
stop
Song Title:  Halik
Artist/Band: Kamikazee
Album:  Romantico (2011)

Tabbed by: Glenn Contreras
Guitar Tunning: Standard

Medyo kulang pa yan na konting tunog pero ok na yang tugtugin. Kayu na lang bahala 
dun sa mga tunog na sinasabi ko. Kayu na lang magtama kung meron man kayu makita 
na mali.Sabayan nyu na lang ung kanta para makuha nyu yung timing. :)

Intro:
Guitar 1
|--------------------------------------------------|
|--------------------------------------------------|
|-4444444444444444444444444-------6/8--6\4---------|
|-xxxxxxxxxxxxxxxxxxxxxxxxx-------x-x--x-x---------|
|-2222222222222222222222222-------4/6--4\2---------|
|--------------------------------------------------|

Guitar 2
E-B-F#-G#m
E-B-F#
E-B-F#-G#m
E-B-F#     E

Guitar 1
|---------------------------------------------------------|
|----77--------------77-----77--9--7----------------------|
|--------9-8-6-8----------------------9-8-6---------------|
|-9---------------9------9--------------------------------|
|---------------------------------------------------------|
|---------------------------------------------------------|


|---------------------------------------------------------|
|----77---------------9-7---------------------------------|
|--------9-8-6-8-6------------9-8-9-8h9-8------6----------|
|-9----------------9------------------------9-------------|
|---------------------------------------------------------|
|---------------------------------------------------------|

Verse 1

E
  Kumupas na
F#           G#m  -  B
  Lambing sa yong mga mata
E                      F#            G#m - B  
  Nagtataka kung bakit yakap mo'y 'di na nadarama
E                                  F#            G#m    -    B
  May mali ba akong nagawa? Tila nag-iba ang mga kilos mo at salita
E
  Bakit kaya? 
F#           G#m - B        E
  Parang hindi ka na masaya


|-----------------------------|
|-----------------------------|
|---6/8--6\4------------------|
|---xxx--x-x------------------|
|---4/6--4\2------------------|
|-----------------------------|


Chorus 1:

E          B        F#   G#m
  Ika'y biglang natauhan
       E      B        F#  
  Umalis kaagad ng hindi nagpapaalam
E          B          F#      G#m
  Ang sabi ko hindi kita mamimiss
             E         B    F#
  Hanggang kelan ito matitiis
E          B        F#  G#m
  Ika'y biglang natauhan
      E      B       F#            
  Umalis kaagad ng wala man lang paalam
E         B         F#      G#m
  Pag nawala doon lang mamimiss
            E        B    F#    E
Hanggang kelan ito matitiis


Verse 2
E
  Alam ko na
F#                G#m - B
  Magaling lang ako sa umpisa
E
  Umasa ka pa sa akin
    F#             G#m  -  B
  Mga pangakong nauwi lang sa wala
E
  Nasayang lang ang iyong pagtitiyaga
             F#
  Wala kang  napala
           G#m  -  B
  At puro lang ako salita
E
  Kaya pala 
F#           G#m - B       E
  Pag-gising ko wala ka na


|-----------------------------|
|-----------------------------|
|---6/8--6\4------------------|
|---xxx--x-x------------------|
|---4/6--4\2------------------|
|-----------------------------|

Chorus 2:
E          B        F#   G#m
  Ika'y biglang natauhan
      E      B         F#
  Umalis kaagad ng hindi nagpapaalam
E          B          F#      G#m
  Ang sabi ko hindi kita mamimiss
             E         B     F#
  Hanggang kelan ito matitiis
E           B       F#  G#m
  Ika'y biglang natauhan
       E     B        F#
  Umalis kaagad ng wala man lang paalam
E         B       F#        G#m
  Pag nawala doon lang mamimiss
              E        B     F#
  Hanggang kelan ito matitiis


Instrumental:

|---------------------------------------|
|---------------------------------------|
|--11-11-11-11-11-11-11-11--------------|
|--x--x--x--x--x--x--x--x---------------|
|--9--9--9--9--9--9--9--9---------------|
|---------------------------------------|

Guitar 2:
G#m-B-E
Guitar 1:

|---------------------------------------|
|---------------------------------------|
|--11-11-11-11-11-11-11-11--------------|  x2
|--x--x--x--x--x--x--x--x---------------|
|--9--9--9--9--9--9--9--9---------------|
|---------------------------------------|

|-------------------------------------------------|
|-------------------------------------------------|
|---7-7-7-7-7-7-7-7-7-7-7-7-7-7-7-7---------------|
|---x-x-x-x-x-x-x-x-x-x-x-x-x-x-x-x---------------|
|---9-9-9-9-9-9-9-9-9-9-9-9-9-9-9-9---------------|
|-------------------------------------------------|
Guitar 2:
G#m-B-E
Guitar 1:
|-------------------------------------------------------------|
|-------------------------------------------------------------|
|---13-13-13-13-13-13-|3-13----11-11-11---9-9-9-8-8-----------|
|---x--x--x--x--x--x--x--x-----x--x--x----x-x-x-x-x-----------|
|---11-11-11-11-11-11-11-11----9--9--9----7-7-7-6-6-----------|
|-------------------------------------------------------------|

|-----------------------------------------|
|-----------------------------------------|
|--9-9-9-9-9--8-6--4-4-4-4-4-4-4-4-4-4----|
|--x-x-x x-x--x-x--x-x-x-x-x-x-x-x-x-x----|
|--7-7-7-7-7--6-4--2-2-2-2-2-2-2-2-2-2----|
|-----------------------------------------|

|-----------------------------|
|-----------------------------|
|---6/8--6\4------------------|
|---xxx--x-x------------------|
|---4/6--4\2------------------|
|-----------------------------|
Chorus 3:
E           B        F#   G#m
  Ika'y biglang natauhan
      E      B        F#
  Umalis kaagad ng hindi nagpapaalam
E          B          F#      G#m
  Ang sabi ko hindi kita mamimiss
              E        B    F#
  Hanggang kelan ito matitiis
E           B        F#   G#m
  Ngayon ko lang natutunan
        E        B        F#
  Ang subukang mabuhay ng para bang may kulang
E          B       F#       G#m
  Pag nawala doon lang mamimiss
          E       B        F#     
  Paalam sa halik mong matamis

E-B-F#

E-B-F#

            
            
Suggest correction
Creating personal tab
Creating personal tab
You can edit any tab online and save it as your Personal.

You can edit, replace or remove any tab part or add personal notes – all changes will be seen only by you.

Personal tabs can be accessed anytime from any device, even offline.
Learn more »
Give kudos to tab author, rate the tab!
1 2 3 4 5
comments
print report bad tab
3 comments total.
0 reply
glenn contreras 30 Jan 29, 2012 04:21 AM

eto ung tunog na sinasabi ko, kasabay ito ng verse 1 at verse 2, base to dun sa performance nila sa tower session.
|-------------------------------------|
|-------------------------------------|
|------11------11------11------11-----|
|--9-9-----9-9-----9-9-----9-9--------|
|-------------------------------------|
|-------------------------------------|

|-----------------------------------------|
|-----------------------------------------|
|-------11------11---------11------11-----|
|--8-8-----8-8----------------------------|
|-------------------11-11------9-9--------|
|-----------------------------------------|
2x

|----------------------------------------------------------|
|----------------------------------------------------------|
|--11--11--11--11--11--11--11--11-----9---9---9---9--------|
|----9---9---9---9---9---9---9----9-----9---9---9---9------|
|----------------------------------------------------------|
|----------------------------------------------------------|

|------------------------------------|
|------------------------------------|
|---8---8-----6---6------------------|
|-----9---9-----9---9----------------|
|------------------------------------|
|------------------------------------|
2x then

|---------|
|---------|
|--11-----|
|--9------|
|---------|
|---------|

0 reply
glenn contreras 30 Jan 29, 2012 04:49 AM

eto ung kasabay nung sa verse 2 kasabay nung tab dun sa unang comment ko. tuloy tuloy lang yan hanggang bago mag chorus. ung pag kalabit sa 2 ung parang pinapatay ang tunog. hehe
enjoy na lang para sa mga tutugtog nyan.
|-------------------------------------------------|
|-------------------------------------------------|
|-------------------------------------------------|
|-----4----4----4----4----4----4----4----4--------|4x
|--2-2--2-2--2-2--2-2--2-2--2-2--2-2--2-2---------|
|-------------------------------------------------|

0 reply
glenn contreras 30 Oct 17, 2013 12:58 AM

may nabaligtad pala na part. ito correction sa



Instrumental:

|---------------------------------------|
|---------------------------------------|
|--11-11-11-11-11-11-11-11--------------|
|--x--x--x--x--x--x--x--x---------------|
|--9--9--9--9--9--9--9--9---------------|
|---------------------------------------|

Guitar 2:
G#m-B-E
Guitar 1:

|---------------------------------------|
|---------------------------------------|
|--11-11-11-11-11-11-11-11--------------| x2
|--x--x--x--x--x--x--x--x---------------|
|--9--9--9--9--9--9--9--9---------------|
|---------------------------------------|

|-------------------------------------------------|
|-------------------------------------------------|
|---9-9-9-9-9-9-9-9-9-9-9-9-9-9-9-9---------------|
|---x-x-x-x-x-x-x-x-x-x-x-x-x-x-x-x---------------|
|---7-7-7-7-7-7-7-7-7-7-7-7-7-7-7-7---------------|
|-------------------------------------------------|
Guitar 2:
G#m-B-E
Guitar 1:
|-------------------------------------------------------------|
|-------------------------------------------------------------|
|---13-13-13-13-13-13-|3-13----11-11-11---9-9-9-8-8-----------|
|---x--x--x--x--x--x--x--x-----x--x--x----x-x-x-x-x-----------|
|---11-11-11-11-11-11-11-11----9--9--9----7-7-7-6-6-----------|
|-------------------------------------------------------------|

|-----------------------------------------|
|-----------------------------------------|
|--9-9-9-9-9--8-6--4-4-4-4-4-4-4-4-4-4----|
|--x-x-x x-x--x-x--x-x-x-x-x-x-x-x-x-x----|
|--7-7-7-7-7--6-4--2-2-2-2-2-2-2-2-2-2----|
|-----------------------------------------|

|-----------------------------|
|-----------------------------|
|---6/8--6\4------------------|
|---xxx--x-x------------------|
|---4/6--4\2------------------|
|-----------------------------|

guest
You may want to rate the tab now too:
select rating
Wanna post a correction for this tab? Suggest correction