Oops, an error
Loading. Please wait.

Long Time Noisy album tab

7,813 views 3 this week
5 commentsread comments
1 2 3 4 5
x 4
add to favorites
×
Save as Personal and add changes to this tab that will be seen only by you. Learn more ›
×
You can save this tab as Personal to edit and correct it or add notes. All changes will be seen only by you. Learn more »
launch autoscroll
font size
0
reset
how to read this tab
guitar tuner
edit
Autoscroll
slow
fast
+/-
esc
set tempo
stop
Author
Difficulty
Tabbers playing skills
intermediate
advanced +
tabbed by Francis
email- f_sario@yahoo.com(fb,fs,mp)


Long Time Noisy, the third album from the Filipino rock band, Kamikazee. It has 20 
tracks and released under Universal Records in 2009.

ITO AY GAWA NI JOMAL LINAO NG LUCENA CITY...HEHEHE

TXT MO SYA SA NUMERONG 09283150081

wala lang akong magawa...wala.wala.wala.wala...

salamat sa kamikazee at may napagkaabalahan ako nitong last week..hehehe...ang magsepra...

pakirate...kung may reklamo,,,ilagay sa comment...kung wala...magcomment n lang....



Ang hindi magrate/comment ng 5*****  ay mamamatay within 24 hours :don't ignore... 
this is a "SUMPA"

   1. Ikaw (3:54)
   2. Hanggang Tingin (4:39)
   3. Eschoos Me (4:21)
   4. 4:20 (4:22)
   5. Meron Akong Ano (4:42)
   6. Balutin Mo Ako (0:47)
   7. Wala (5:26)
   8. Lalandiin (4:06)
   9. Unang Tikim (4:07)
  10. Alay (3:44)
  11. Hot Mami (6:05)
  12. I Love You Ninang (0:04)
  13. Dragon Spa Super Head Charger Volume 4 (0:48)
  14. Caintaenyo (0:08)
  15. M.M.K. (3:46)
  16. Chismosa (4:15)
  17. Teyk Awts (8:34)
  18. Huli Ka Balbon (0:39)
  19. Me Na Me (2:38)
  20. Isplakitengtenks (9:29)

----------------------------------------------------------------------------------------
                                 1. Ikaw (3:54)
----------------------------------------------------------------------------------------


   1. Ikaw (3:54)Kamikazee-

Long Time Noisy

Made in Lucena
Donated by SHC BSN'10
f_sario@yahoo.com
09283150081


GtrI  ( e b g d a E ) Jomal
GtrII ( e b g d a E ) Led

Intro-
1.
GtrI&II
|--------------------------------------------|
|--------------------------------------------|
|--------------------------------------------|
|-xx-xx-xx-xx-xx-xx-xx-xx-xx-xx-xx-xx-xx-xx--|
|-xx-xx-xx-xx-xx-xx-xx-xx-xx-xx-xx-xx-xx-xx--|
|-xx-xx-xx-xx-xx-xx-xx-xx-xx-xx-xx-xx-xx-xx--|
2.
GtrI
|-------------------------------|
|-------------------------------|
|-------------------------------|
|-------------------------------|
|-------2--------------2--------|
|-0-2h4---4-2h4--0-2h4---4-2h4--|
GtrII
|-------------------------------|
|-------------------------------|
|-------------------------------|
|-------------------------------|
|----------------------2--------|
|----------------0-2h4---4-2h4--|
3.
GtrI
|--------------------------------------------------------|
|--------------------------------------------------------|
|-9999------6666-----------9999-8888-6666-44-4-4-4-------|
|-9999------6666--7--11-9--------------------------------|
|-7777-7777-4444--7--11-9--7777-6666-4444-22-2-2-2-------|
|------5555-------5--9--7--------------------------------|
GtrII
|-----------------------------------------------------------|
|-----------------------------------------------------------|
|-9999-8888-13131313-9--13-11-9999------6666----------------|
|-----------------------------9999-7777-6666--99x-9x-9x-9x--|
|-7777-6666-11111111-7--11-9--7777-7777-4444--99x-9x-9x-9x--|
|----------------------------------5555-------77x-7x-7x-7x--|


Verse-
a.
GtrI
|-------------------------------------------------------------------|
|-------------------------------------------------------------------|
|-------------------------------------------------------------------|
|--------2----------------2---------------2---------------2---------|
|----2-4---4-2-4---00-2-4---4-2-4--44-2-4---4-2-4--22-2-4---4-2-4---|
|-00----------------------------------------------------------------|
  ** * *   * * *   ** * *   * * *  ** * *   * * *  ** * *

b.
GtrI

|-------------------------------------------------------------------|
|-------------------------------------------------------------------|
|-------------------------------------------------------------------|
|--------2----------------2---------------2---------------2-2-2-2---|
|----2-4---4-2-4---00-2-4---4-2-4--44-2-4---4-2-4--22-2-4-----------|
|-00----------------------------------------------------------------|
  ** * *   * * *   ** * *   * * *  ** * *   * * *  ** * *

|-------------------------------------------------------------------|
|-------------------------------------------------------------------|
|-------------------------------------------------------------------|
|--------2----------------2---------------2---------------2---------|
|----2-4---4-2-4---00-2-4---4-2-4--44-2-4---4-2-4--22-2-4---4-2-4---|
|-00----------------------------------------------------------------|
  ** * *   * * *   ** * *   * * *  ** * *   * * *  ** * *


GtrII
|-------------------------------------|
|-------------------------------------|
|-------------------------------------|
|-------------------66666666----------|
|-22222222-77777777-44444444-99999999-|
|-00000000-55555555----------77777777-|
  ******** ******** ******** ********
|-------------------------------------|
|-------------------------------------|
|-------------------------------------|
|-------------------66666666----------|
|-22222222-77777777-44444444-99999999-|
|-00000000-55555555----------77777777-|
  ******** ******** ********

Refrain-
GTrI
|-------------------------------------|
|-------------------------------------|
|-99999--99999-----99999---99999------|
|-------------------------------------|2x
|-77777--77777-----77777---77777------|
|-------------------------------------|
GtrII
|-------------------------------------|
|-------------------------------------|
|-99999------------66666--------------|
|-99999---77777----66666----99999-----|2x
|-77777---77777----44444----99999-----|
|---------55555-------------77777-----|

GtrI
|-------------------------------|
|-------------------------------|
|-------------------------------|
|-------------------------------|
|-------2-----------------------|
|-0-2h4---4-2h4-----------------|


Chorus-
GtrI
|--------------------------------------------------------|
|--------------------------------------------------------|
|-9999------6666-----------9999-8888-6666-44-4-4-4-------|
|-9999------6666--7--11-9--------------------------------|
|-7777-7777-4444--7--11-9--7777-6666-4444-22-2-2-2-------|
|------5555-------5--9--7--------------------------------|

|----------------------------------------------|
|-9---9--10--12----12--12--9h10p9--9h10p9------|
|---9---9---9--9-----9---9--------9------------|2x
|----------------------------------------------|
|----------------------------------------------|
|----------------------------------------------|

GtrII
|------------------------------------------------|
|------------------------------------------------|
|-9999------6666-----------9999------6666--------|
|-9999-7777-6666-7--11-9---9999-7777-6666-9999---|
|-7777-7777-4444-7--11-9---7777-7777-4444-9999---|
|------5555------5--9--7--------5555------7777---|


|--------------------------------------------------------|
|--------------------------------------------------------|
|-9999------6666-----------9999------6666----------------|
|-9999-7777-6666-7--11-9---9999-7777-6666-777-9x-9x-9x---|
|-7777-7777-4444-7--11-9---7777-7777-4444-777-9x-9x-9x---|
|------5555------5--9--7--------5555------555-7x-7x-7x---|


GtrI
|-------------------------------|
|-------------------------------|
|-------------------------------|
|-------------------------------|
|-------2-----------------6-6---|
|-0-2h4---4-2h4-00-2h4-0--4-4---|


Do verse b.
do Refrain
Do Chorus-

GtrI
|----------------------------------------------------------------|
|-101010-12~-----------------------------------------------------|
|-9-9-9--9~-------99999999-999999999999999--9999999999999999-----|
|------------/---------------------------------------------------|
|------------/----77777777-777777777777777--7777777777777777-----|
|------------/---------------------------------------------------|


GtrII
|----------------------------------------------------------|
|----------------------------------------------------------|
|-----------------99999999---------------------------------|
|-9-9-9--2~--/---------------------------------------------|
|-9-9-9--2~--/----77777777-222222222222222-----------------|
|-7-7-7--0~--/-------------000000000000000-----------------|
                           ***************

then
---------------|
---------------|
---------------|
----99---------|
-77-77-99-66-7-|
-55----77-44-5-|
Solo-
GtrI  
|---------------------------------|----------------------------------------|
|-0-7h9-0-5h7-0-4h5-0-7h9-0-12h10-|-0-14h12-0-12p10-0-9h10p9-0-5p0-4h5-4p0-|
|---------------------------------|----------------------------------------|
|---------------------------------|----------------------------------------|
|---------------------------------|----------------------------------------|
|---------------------------------|----------------------------------------|

|---------------------------------|----------------------------------------|
|-0-7h9-0-5h7-0-4h5-0-7h9-0-12h10-|-0-10p9-0-7p5-0-14h12-0-10p9-0-7h9-7p5--|
|---------------------------------|----------------------------------------|
|---------------------------------|----------------------------------------|
|---------------------------------|----------------------------------------|
|---------------------------------|----------------------------------------|

|---------------------------------|----------------------------------------|
|-0-7h9-0-5h7-0-4h5-0-7h9-0-12h10-|-0-14h12-0-12p10-0-9h10p9-0-5p0-4h5-4p0-|
|---------------------------------|----------------------------------------|
|---------------------------------|----------------------------------------|
|---------------------------------|----------------------------------------|
|---------------------------------|----------------------------------------|
GtrII
|-----------------------------------------------------------|
|-----------------------------------------------------------|
|----------66----66-----------------------------------------|
|-22222222-66-77-66-77-9-7---22222222-77-22-99-22-7-2-------|
|-22222222-44-77-44-77-9-7---22222222-77-22-99-22-7-2-------|
|-00000000----55----55-7-5---00000000-55-00-77-00-5-0-------|

|---------------------------|
|---------------------------|
|----------66----66---------|
|-22222222-66-77-66-77-9-9--|
|-22222222-44-77-44-77-9-9--|
|-00000000----55----55-7-7--|


then
GtrI
|----------------------------------------------------|
|-1414-1212-99-77-7h9p7----1414-1212-99-77-7h9p7-----|
|-1313-1313-99-88-8-----9--1313-1313-99-88-8-----9---|
|----------------------------------------------------|
|----------------------------------------------------|
|----------------------------------------------------|

|------------------1212h14-1212h14-1212h14-1212h12--12121212--|
|-1414-1212-99-77--1212----1212----1212----1212-----12121212--|
|-1313-1313-99-88---------------------------------------------|
|-------------------------------------------------------------|
|-------------------------------------------------------------|
|-------------------------------------------------------------|
GtrII
|------------------------------------------|
|------------------------------------------|
|------------------------------------------|
|---1111-99-66----------1111-99-66---------|
|---1111-99-66----------1111-99-66---------|
|---9-9--77-44-2h4-2p0--9-9--77-44-2h4-2p0-|

|---------------------------------------|
|---------------------------------------|
|---------------------------------------|
|-1111-99-66---22---22-22-22-22-2-2-----|
|-1111-99-66---22---22-22-22-22-2-2-----|
|-9-9--77-44---00---00-00-00-00-0-0-----|


then
GtrI
|-------------------------------------------------------------------|
|-------------------------------------------------------------------|
|-------------------------------------------------------------------|
|--------2----------------2---------------2---------------2---------|
|----2-4---4-2-4------2-4---4-2-4-----2-4---4-2-4-----2-4---4-2-4---|
|-00---------------00--------------00--------------00---------------|
  ** * *   * * *   ** * *   * * *  ** * *   * * *  ** * *   * * *


|-------------------------------------------------------------------|
|-------------------------------------------------------------------|
|-------------------------------------------------------------------|
|--------2----------------2---------------2-------------------------|
|----2-4---4-2-4------2-4---4-2-4-----2-4---4-2-4-------------------|
|-00---------------00--------------00--------------00-0-0--12/0-----|
  ** * *   * * *   ** * *   * * *  ** * *   * * *  ** * *    
Bridge-

GtrI
|-------------------------------------|
|-------------------------------------|
|-------------------------------------|

|-22222222-77777777-447477x7---7-77x7-|
|-00000000-55555555----------77-7-----|
  ******** ******** ** *     ** ***  


GtrII
|-------------------------------------------------------------------------|
|-------------------------------------------------------------------------|
|-------------------------------------------------------------------------|
|-99999999-77777777-66666666----------99999999-77777777-66666666----------|
|----------------------------99999999---------------------------99999999--|
|-------------------------------------------------------------------------|
  ******** ******** ******** ********


GtrI
|-------------------------------------|
|-------------------------------------|
|-------------------------------------|
|-------------------------------------|
|-22222222-77777777-447477x7---7-77x7-|
|-00000000-55555555----------77-7-----|
                    ** *     ** * 
|-------------------------------------|
|-------------------------------------|
|-------------------------------------|
|-------------------66666666----------|
|-22222222-77777777-44444444-99999999-|
|-00000000-55555555----------77777777-|
  ******** ********
GtrII
|-------------------------------------|
|-------------------------------------|
|-------------------------------------|
|-------------------66666666----------|
|-22222222-77777777-44444444-99999999-|
|-00000000-55555555----------77777777-|
  ******** ******** ******** ********
|-------------------------------------|
|-------------------------------------|
|-------------------------------------|
|-------------------66666666----------|
|-22222222-77777777-44444444-99999999-|
|-00000000-55555555----------77777777-|
  ******** ********

then
GtrI
|-------------------------------------|
|-------------------------------------|
|-9999-------------6666---------------|
|-9999----7777-----6666-----9999------|2x
|-7777----7777-----4444-----9999------|
|---------5555--------------7777------|

|-------------------------------------|
|-9999--13131313--14141414-16161616---|
|-------------------------------------|2x
|-7777--11111111--12121212-14141414---|
|-------------------------------------|

GtrII
|-------------------------------------|
|-------------------------------------|
|-9999-------------6666---------------|
|-9999----7777-----6666-----9999------|4x
|-7777----7777-----4444-----9999------|
|---------5555--------------7777------|


Do Chorus-

GtrI
|--------------------------------------------------------|
|--------------------------------------------------------|
|-9999------6666-----------9999-8888-6666-44-4-4-4-------|
|-9999------6666--7--11-9--------------------------------|
|-7777-7777-4444--7--11-9--7777-6666-4444-22-2-2-2-------|
|------5555-------5--9--7--------------------------------|


|----------------------------------------------|
|-9---9--10--12----12--12--9h10p9--9h10p9------|
|---9---9---9--9-----9---9--------9------------| 
|----------------------------------------------|
|----------------------------------------------|
|----------------------------------------------|

|--------------------------------------------------------|
|-9---9--10--12--12/14-12-10h12-10/9--9h10p9--9h10p9-----|
|---9---9---9--9-----------------------------9------9----|
|--------------------------------------------------------|
|--------------------------------------------------------|
|--------------------------------------------------------|

GtrII do chorus

GtrI

|-------------------------------------------------------|
|-99999-1010101010-1212121212--10-xx-10-xx-10-xx--------|
|-99999-9-9-9-9-9--9-9-9-9-9---9--xx-9--xx--9-xx--------|
|---------------------------------xx----xx---xx---------|
|-77777-7-7-7-7-7-----------------xx----xx---xx---------|
|-------------------------------------------------------|


|-------------------------------------------------------|
|-99999-1010101010-1212121212--12-12-12-12-12-12--------|
|-99999-9-9-9-9-9--9-9-9-9-9---9--9--9--9--9--9---------|
|-------------------------------------------------------|
|-77777-7-7-7-7-7---------------------------------------|
|-------------------------------------------------------|


GtrII

|-------------------------------------|
|-------------------------------------|
|-99999------------66666--------------|
|-99999---77777----66666----9xx9xx9xx-|
|-77777---77777----44444----9xx9xx9xx-|
|---------55555-------------700700700-|
                             ** ** **
|-------------------------------------|
|-------------------------------------|
|-99999------------66666--------------|
|-99999---77777----66666----999999999-|
|-77777---77777----44444----999999999-|
|---------55555-------------777777777-|



----------------------------------------------------------------------------
                            2. Hanggang Tingin (4:39
-----------------------------------------------------------------------------


Intro-
GtrI

|-0-0-0--0-0-0--0-0-0--0--0-0--0-0-0-0--|
|-5-4-0--7-5-0--9-7-0--10-9-0--9-7-9-7--|
|---------------------------------------|
|---------------------------------------|2x
|---------------------------------------|
|---------------------------------------|

|-0-0-0---0~----0-0-0~--0-0-0~--0-0-0~--|
|-5-7-5---4~----5-4-2~--5-4-2~--5-4-0~--|
|---------------------------------------|
|---------------------------------------|
|---------------------------------------|
|---------------------------------------|


then

GtrI
|---------------------------------------------------------------------------|
|---------------------------------------------------------------------------|
|---------------------------------------------------------------------/11-9-|
|---------/9-7-6-7-6-------/9-7-6-7-9-/11-99--/9-7-6-7-6-----9-7-6-7-9------|
|--------------------9-77-------------------------------9-77----------------|
|---------------------------------------------------------------------------|

|---------------------------------------------------------------------------|
|---------------------------------------------------------------------------|
|-----------------------------------------------------------9~--------------|
|---------/9-7-6-7-6-------/9-7-6-7-9-/11-99--/9-7-6-7-6----9~--------------|
|--------------------9-77-------------------------------9-7-7~--------------|
|---------------------------------------------------------------------------|


GtrII
|-----------------------------------------|
|-----------------------------------------|
|-----------------------------------------|
|-11-9--77-99-1111----11-9--77-99-1111----|
|-11-9--77-99-1111----11-9--77-99-1111----|
|-9--7--55-77-9-9-----9--7--55-77-9-9-----|

|---------------------------------0~----|
|---------------------------------0~----|
|---------------------------------1~----|
|-11-9--7-77-99-1111--11-9--77-99-2~----|
|-11-9--7-77-99-1111--11-9--77-99-2~----|
|-9--7--5-55-77-9-9---9--7--55-77-0~----|


Verse-
GtrI
|---------------------------------------------------------------xxx-xxxxxx-|
|---------------------------------------------------------------xxx-xxxxxx-|
|---------------------------------------------------------------xxx-xxxxxx-|
|-----------------------99999-9999----------------------99999---xxx-xxxxxx-|
|-77777-7777-99999-9999-77777-7777-77777-7777-77777-----77777---xxx-xxxxxx-|
|-55555-5555-77777-7777------------55555-5555-55555-------------xxx-xxxxxx-|

GtrII
|-------------------------------------------------------------
|-------------------------------------------------------------
|-99999-9999-88888-8888-1313131313-13131313-99999-9999--99999-
|-------------------------------------------------------------
|-77777-7777-66666-6666-1111111111-11111111-77777-7777--77777-
|-------------------------------------------------------------

-------------xxx-xxxxxx-|
-------------xxx-xxxxxx-|
-1313131313--xxx-xxxxxx-|
-------------xxx-xxxxxx-|
-1111111111--xxx-xxxxxx-|
-------------xxx-xxxxxx-|

Refrain-
GtrI
|------------------------------------------------------------------|
|------------------------------------------------------------------|
|------------------------------------------------------------------|
|-------------------99999999----------------------------99999999-7-|
|-77777777-99999999-77777777-77777777-77777777-99999999-77777777-7-|
|-55555555-77777777----------55555555-55555555-77777777----------5-|

GtrII
|-------------------------------------
|-------------------------------------
|-------------------------------------
|-------------------99999999----------
|-77777777-99999999-77777777-77777777-
|-55555555-77777777----------55555555-

|------------------------------------------------------------------|
|-0-9p0-7p0-5p0-4p0-5p0-7p0-5p0--0-9p0-7p0-5p0-4p0-5p0-7p0-5p0-----|
|------------------------------------------------------------------|
|------------------------------------------------------------------|
|------------------------------------------------------------------|
|------------------------------------------------------------------|

|------------------------------------------------------------------|
|-0-9p0-7p0-5p0-4p0-5p0-7p0-5p0--0-5~------------------------------|
|------------------------------------------------------------------|
|------------------------------------------------------------------|
|------------------------------------------------------------------|
|------------------------------------------------------------------|

then
GtrI
|----------------4-----5-4--------------|
|-5-4-0---7-5-0----7-5-----5--9-7-------|
|---------------------------------------|
|---------------------------------------|
|---------------------------------------|
|---------------------------------------|
gtrII
|--------------------------|
|--------------------------|
|--------------------------|
|-----------------999-6-4--|
|-777-999-111111--777-4-2--|
|-555-777-9-9-9------------|



Chorus-
|-0000000000000000-000000000000000-0000000000000000-0000000000000000-|
|-0000000000000000-000000000000000-0000000000000000-0000000000000000-|
|-9999999999999999-666666666666666-2222222222222222-2222222222222222-|
|-9999999999999999-666666666666666-2222222222222222-2222222222222222-|2x
|-7777777777777777-444444444444444-0000000000000000-0000000000000000-|
|--------------------------------------------------------------------|


Interlude-
GtrI

|---------------------------------------------------------------------------|
|---------------------------------------------------------------------------|
|-----------------------------------------------------------9~--------------|
|---------/9-7-6-7-6-------/9-7-6-7-9-/11-99--/9-7-6-7-6----9~--------------|
|--------------------9-77-------------------------------9-7-7~--------------|
|---------------------------------------------------------------------------|

GtrII
|-------------------------------|
|-------------------------------|
|-------------------------------|
|-77-99-1111---11-9--77-99-2~---|
|-77-99-1111---11-9--77-99-2~---|
|-55-77-9-9----9--7--55-77-0~---|


Do verse to Chorus
Interlude-
GtrI
|---------------------------------------------------------------------------|
|---------------------------------------------------------------------------|
|---------------------------------------------------------------------/11-9-|
|---------/9-7-6-7-6-------/9-7-6-7-9-/11-99--/9-7-6-7-6-----9-7-6-7-9------|
|--------------------9-77-------------------------------9-77----------------|
|---------------------------------------------------------------------------|

|---------------------------------------------------------------------------|
|---------------------------------------------------------------------------|
|---------------------------------------------------------------------------|
|---------/9-7-6-7-6-------/9-7-6-7-9-/11-99--/9-7-6-7-6--------------------|
|--------------------9-77-------------------------------9-7-----------------|
|---------------------------------------------------------------------------|


GtrII
|-----------------------------------------|
|-----------------------------------------|
|-----------------------------------------|
|-------77-99-1111----11-9--77-99-1111----|
|-------77-99-1111----11-9--77-99-1111----|
|-------55-77-9-9-----9--7--55-77-9-9-----|

|---------------------------------------|
|---------------------------------------|
|---------------------------------------|
|-11-9--7-77-99-1111--11-9--77-99-------|
|-11-9--7-77-99-1111--11-9--77-99-------|
|-9--7--5-55-77-9-9---9--7--55-77-------|

Then
|-0~-------0~-------0~-----|
|-0~-------0~-------0~-----|
|-9~-------4~-------2~-----|
|-9~-------4~-------2~-----|
|-7~-------2~-------0~-----|
|--------------------------|
GtrI
|---------------------------------------------------------0~------|
|-9999999999999999999999999999999999999999999999999999----0~------|
|-9999999999999999999999999999999999999999999999999999----0~------|
|---------------------------------------------------------0~------|
|-7777777777777777777777777777777777777777777777777777------------|
|-----------------------------------------------------------------|
GtrII
|----------------------------------------------------------------|
|----------------------------------------------------------------|
|----------------------------------------------------------------|
|----------------------------------------------------------------|
|--2222--------2222---------2222~-----------2222-----------------|
|--0000--------0000---------0000~-----------0000-----------------|


then
GtrI
|---------------------------------------|
|----------9-xxxx-9-xxxx-9-xxxx-9-xxxx--|
|----------9-xxxx-9-xxxx-9-xxxx-9-xxxx--|
|----------7-xxxx-7-xxxx-7-xxxx-7-xxxx--|2x
|----------7-xxxx-7-xxxx-7-xxxx-7-xxxx--|
|-2-4-2-0-------------------------------|
GtrII
|---------------------------------------|
|---------------------------------------|
|---------------------------------------|
|----------2-xxxx-2-xxxx-2-xxxx-2-xxxx--|2x
|----------2-xxxx-2-xxxx-2-xxxx-2-xxxx--|
|-2-4-2-0--0-xxxx-0-xxxx-0-xxxx-0-xxxx--|

GtrI
|----------------------------------------------|------0----|
|----------------------------------------------|------0----|
|----------------------------------------9999/-|------9----|
|----------------------------------------9999/-|------9----|
|---------/7^------/7^------/7^------/7^-7777/-|-2-2--7----|
|-2-4-2-0--------------------------------------|-0-0-------|
                                                 * *
GtrII
|----------------------------------------------|------0----|
|----------------------------------------------|------0----|
|--------------------------------------------/-|------1----|
|--------------------------------------------/-|------2----|
|---------/7^-xxxx-/7^-xxxx-/7^-xxxx-/7^-2222/-|-2-2--2----|
|-2-4-2-0--------------------------------0000/-|-0-0--0----|
                                                 * *

GtrI
|-----------xxxx---xxxx---xxxx---xxxx----------------------------|
|-----------xxxx---xxxx---xxxx---xxxx-10-12-10-9---999-99999999--|
|---------9-xxxx-9-xxxx-9-xxxx-9-xxxx-9--9--9--9---999-99999999--|
|---------9-xxxx-9-xxxx-9-xxxx-9-xxxx----------------------------|
|---------7-xxxx-7-xxxx-7-xxxx-7-xxxx-----------777777-77777777--|
|-2-4-2-0---xxxx---xxxx---xxxx---xxxx----------------------------|
                                                ****
GtrII
|-----------xxxx---xxxx---xxxx---xxxx----------------------------|
|-----------xxxx---xxxx---xxxx---xxxx----------------------------|
|-----------xxxx---xxxx---xxxx---xxxx----------------------------|
|---------2-xxxx-2-xxxx-2-xxxx-2-xxxx---------2----222-22222222--|
|---------2-xxxx-2-xxxx-2-xxxx-2-xxxx---------2-222222-22222222--|
|-2-4-2-0-0-xxxx-0-xxxx-0-xxxx-0-xxxx-2-4-2-0-0-000000-00000000--|
                                                ****     
Then

GtrI
|----------------4-----5-4--------------|
|-5-4-0---7-5-0----7-5-----5--9-7-------|
|---------------------------------------|
|---------------------------------------|
|---------------------------------------|
|---------------------------------------|
GtrII
|--------------------------|
|--------------------------|
|--------------------------|
|-----------------999-6-4--|
|-777-999-111111--777-4-2--|
|-555-777-9-9-9------------|

DO chorus-


GtrI
|---------------------------------------------------------------------------|
|---------------------------------------------------------------------------|
|---------------------------------------------------------------------/11-9-|
|---------/9-7-6-7-6-------/9-7-6-7-9-/11-99--/9-7-6-7-6-----9-7-6-7-9------|
|--------------------9-77-------------------------------9-77----------------|
|---------------------------------------------------------------------------|

|--------------------------------------------------------0~--------------|
|--------------------------------------------------------0~--------------|
|--------------------------------------------------------9~--------------|
|---------/9-7-6-7-6-------/9-7-6-7-9-/11-99--/9-7-6-7~--6~--------------|
|--------------------9-77--------------------------------7~--------------|
|------------------------------------------------------------------------|

GtrII
GtrII
|-----------------------------------------|
|-----------------------------------------|
|-----------------------------------------|
|-11-9--77-99-1111----11-9--77-99-1111----|
|-11-9--77-99-1111----11-9--77-99-1111----|
|-9--7--55-77-9-9-----9--7--55-77-9-9-----|

|---------------------------------0~----|
|---------------------------------0~----|
|---------------------------------1~----|
|-11-9--77-99-1111----11-9--77-99-2~----|
|-11-9--77-99-1111----11-9--77-99-2~----|
|-9--7--55-77-9-9-----9--7--55-77-0~----|







----------------------------------------------------------------------------
                           3. Eschoos Me (4:21)

----------------------------------------------------------------------------
 

Intro-
GtrI
|-----------------------------------------------------|
|-----------------------------------------------------|
|----------------------------------------------55-77--|
|----------------------------------------------55-77--|
|-0-0-5-0-6-0-7-0--0-5-0-6-0-7-0--0-5-0-6-0-7--33-55--|
|-----------------------------------------------------|

|------------------------------------------------------------|
|------------------------------------------------------------|
|------------------------------------------------------------|
|------------------------------------------------------------|
|-0-0-5-0-6-0-7-0--0-5-0-6-0-7-0--0-5-0-6-0-7-0-------5h6p5--|
|------------------------------------------------------------|

|-----------------------------------------------------|
|-----------------------------------------------------|
|-----------------------------------------------------|
|----------------------------------------------55-77--|
|-0-0-5-0-6-0-7-0--0-5-0-6-0-7-0--0-5-0-6-0-7--33-55--|
|-----------------------------------------------------|

|--------------------------------------------------------------|
|--------------------------------------------------------------|
|--------------------------------------------------------------|
|-------------------------------------------------------55-77--|
|-0-0-10-0-11-0-12-0--0-10-0-11-0-12-0--0-10-0-11-0-12--33-55--|
|--------------------------------------------------------------|

GtrII

|-------------------------------|
|-------------------------------|
|-----------------------777-----|
|-7----7----7~---7------777-----|
|-7----7----7~---7------555-----|
|-5----5----5~---5--------------|

|---------------------------------------|
|---------------------------------------|
|--------------55-77--------------55-77-|
|-777777777777-55-77-777777777777-55-77-|2x
|-777777777777-33-55-777777777777-33-55-|
|-555555555555-------555555555555-------|

Verse-
GtrI
|-----------------------------------------------|
|-----------------------------------------------|
|-----------------------------------------------|
|-----------------------------------------------|
|-0-0-5-0-6-0-7-0--0-5-0-6-0-7-0--0-5-0-6-0-7---|
|-----------------------------------------------|

|---------------------------------------------------------|
|---------------------------------------------------------|
|----------------------------------------------xxx77/8\7--|
|----------------------------------------------xxxxx/x\x--|
|-0-0-5-0-6-0-7-0--0-5-0-6-0-7-0--0-5-0-6-0-7--xxx55/6\5--|
|---------------------------------------------------------|

GtrII
|---------------------------------------------------------|
|---------------------------------------------------------|
|----------------------------------------------xxx77/8\7--|
|-7--------------------7-----------------------xxxxx/x\x--|
|-7--------------------7-----------------------xxx55/6\5--|
|-5--------------------5----------------------------------|

refrain-
Gtr I&II 
|---------------------------------------|
|---------------------------------------|
|--------------55-77--------------55-77-|
|-777777777777-55-77-777777777777-55-77-|
|-777777777777-33-55-777777777777-33-55-|
|-555555555555-------555555555555-------|

then

breakdown-
GtrI
|----------------------------------------------------------------------|
|----------------------------------------------------------------------|
|----------------------------------------------------------------------|
|-2~-----2~-----2~-----------------2~----------------------------------|
|-2~-----2~-----2~-----------------2~----------------------------------|
|-0~-----0~-----0~-----------------0~----------------------------------|
GtrII
|------------------------------------------------------------------|
|------------------------------------------------------------------|
|-9~-----9~-----9999999999999999--1616161616161616161616161616-----|
|-9~-----9~--------------------------------------------------------|
|-7~-----7~-----7777777777777777--1414141414141414141414141414-----|
|------------------------------------------------------------------|

Prechorus1-
GtrI
|-------------------------------------------------------|
|-------------------------------------------------------|
|----------------------------------------------5--55-77-|
|----------------------------------------------5--55-77-|
|-0-0-5-0-6-0-7-0--0-5-0-6-0-7-0--0-5-0-6-0-7--3--33-55-|
|-------------------------------------------------------|

GtrI
|-------------------------------------------------------|
|-------------------------------------------------------|
|----------------------------------------------5--55-77-|
|-7--------------------------7-----------------5--55-77-|
|-7--------------------------7-----------------3--33-55-|
|-5--------------------------5--------------------------|
Chorus-
GtrI
|----------------------------------|
|----------------------------------|
|--------------------------55-77---|
|-2-2-2-2-5-5-5-5-7-7-7-7--55-77---|3x
|-2-2-2-2-5-5-5-5-7-7-7-7--33-55---|
|-0-0-0-0-3-3-3-3-5-5-5-5----------|
GtrII
|-------------------------------------------------------------|
|-------------------------------------------------------------|
|-9-9-9-9------------------55-77----9999-7777-6666-5----777---|
|-9-9-9-9-5-5-5-5-7-7-7-7--55-77------------------------------|
|-7-7-7-7-5-5-5-5-7-7-7-7--33-55----7777-5555-4444-3-33-555---|
|---------3-3-3-3-5-5-5-5-------------------------------------|
                                                     **
|----------------------------------|
|----------------------------------|
|-9-9-9-9------------------55-77---|
|-9-9-9-9-5-5-5-5-7-7-7-7--55-77---|
|-7-7-7-7-5-5-5-5-7-7-7-7--33-55---|
|---------3-3-3-3-5-5-5-5----------|

Do verse and refrain
Then Chorus-

Interlude
|----------------------------------------------------------------------|
|----------------------------------------------------------------------|
|----------------------------------------------------------------------|
|----------------------------------------------------------------------|
|--------------5^-----5p0-7^---------------------5^--------------------|
|-5-6-7^--0-3p0----3p0---------0-5h7p5-0----0-3p0-----3p0--5h7p5-0-----|

|-------------------------------------------------------------------------|
|-------------------------------------------------------------------------|
|-------------------------------------------------------------------------|
|-------------------------------------------------------------------------|
|--------------5^-----5p0-7^---------------------5^-----------------------|
|-5-6-7^--0-3p0----3p0---------0-5h7p5-0----0-3p0-----3p0--5h7p5-0-h5p3-0-|

then-
GtrI
|----------------------------------------------------------------------|
|----------------------------------------------------------------------|
|----------------------------------------------------------------------|
|----------------------------------------------------------------------|2x
|---7---6----5----4-----3^*-------7---6----5----4-----2^*--------------|
|-0---0---00---00----00---------0---0---00---00----00------------------|
   *   *   **   **   **         *   *   **   **    ** 
GtrII
|----------------------------------------------------------------------|
|----------------------------------------------------------------------|
|----------------------------------------------------------------------|
|-2~-------------2~---------------2~----------------2~----xxxx---------|
|-2~-------------2~---------------2~----------------2~----xxxx---------|
|-0~-------------0~---------------0~----------------0~----xxxx---------|

then-
GtrI
|----------------------------------------------------------------------|
|----------------------------------------------------------------------|
|----------------------------------------------------------------------|
|----------------------------------------------------------------------|
|----------------------------------------------------------------------|
|-0-5-0-6-0-7-0-8-0-7-0-6h7p5-0----0-5-0-6-0-7-0-8-0-7-0-6h7p5-0-------|
GtrII
|----------------------------------------------------------------------|
|----------------------------------------------------------------------|
|----------------------------------------------------------------------|
|-2-2-2-2-2-2-2-2-2-2-2-2-2-2-2-2-2-2-2-2-2-2-2-2-2-2-2-2-2-2-2-2-2-2~-|
|-2-2-2-2-2-2-2-2-2-2-2-2-2-2-2-2-2-2-2-2-2-2-2-2-2-2-2-2-2-2-2-2-2-2~-|
|-0-0-0-0-0-0-0-0-0-0-0-0-0-0-0-0-0-0-0-0-0-0-0-0-0-0-0-0-0-0-0-0-0-0~-|

then bass and drums

drumbeats-chichikiri,,,mommy rockers ako!...

(pak!)aray!..punyeta k...banda k n ng ng banda..
GtrI
|----------------------------------------------------------------------|
|-12~-----14~------15~--------------12~-----14~------15~---------------|
|-13~-----14~------14~--------------13~-----14~------14~---------------|
|----------------------------------------------------------------------|
|----------------------------------------------------------------------|
|----------------------------------------------------------------------|
(timingan nyo na lng)                       
chichikiri.........                                                iw...
|-12--12--12--12--12--12----15--15--15--15----17--17---17--17--17--17--|
|-15^-15^-15^-15^-15^-15^---18^-18^-18^-18^---20^-20^--20^-20^-20^-20^-|
|----------------------------------------------------------------------|
|----------------------------------------------------------------------|
|----------------------------------------------------------------------|
|----------------------------------------------------------------------|


then
interude II
|------------------------------------------------------------------------|
|------------------------------------------------------------------------|
|------------------------------------------------------------------------|
|------------------------------------------------------------------------|
|--------------7777--------------7777-------------7777--------------7777-|
|-000000000000------000000000000------000000000000-----000000000000------|
  ************      ************      ************     ************
|------------------------------------------------------------------7/9---|
|------------------------------------------------------------------8/10--|
|------------------------------------------------------------------------|
|------------------------------------------------------------------------|
|--------------7777--------------7777-------------7777-------------------|
|-000000000000------000000000000------000000000000-----0-----------------|
  ************      ************      ************     
|----------------------------------------------------------------------|
|----------------------------------------------------------------------|
|----------------------------------------------------------------------|
|-2~-------------2~---------------2~----------------2------------------|
|-2~-------------2~---------------2~----------------2------------------|
|-0~-------------0~---------------0~----------------0------------------|

then
both
GtrI
|----------------------------------------------------------------------------|
|----------------------------------------------------------------------------|
|----------------------------------------------------------------------------|
|----------------------------------------------------------------------------|
|-0-0-5-0-6-0-7-0--0-5-0-6-0-7-0--0-5-0-6-0-7-0-0-5-0-6-0-7-7---7---7---xxx--|
|-----------------------------------------------------------5---5---5---xxx--|
GtrII
|-------------------------------------------------------|
|-------------------------------------------------------|
|-------------------------------------------------------|
|-7-7-7-7-7-7-7-7-7-7-7-7-7-7-7-7-----7---7---7---xxx---|
|-7-7-7-7-7-7-7-7-7-7-7-7-7-7-7-7-----7---7---7---xxx---|
|-5-5-5-5-5-5-5-5-5-5-5-5-5-5-5-5-----5---5---5---xxx---|

Chorus-
GtrI
|----------------------------------|
|----------------------------------|
|--------------------------55-77---|
|-2-2-2-2-5-5-5-5-7-7-7-7--55-77---|
|-2-2-2-2-5-5-5-5-7-7-7-7--33-55---|
|-0-0-0-0-3-3-3-3-5-5-5-5----------|

|----------------------------------|
|----------------------------------|
|--------------------------5--7----|
|-2-2-2-2-5-5-5-5-7-7-7-7--5--7----|
|-2-2-2-2-5-5-5-5-7-7-7-7--3--5----|
|-0-0-0-0-3-3-3-3-5-5-5-5----------|


|----------------------------------|
|----------------------------------|
|--------------------------55-77---|
|-2-2-2-2-5-5-5-5-7-7-7-7--55-77---|
|-2-2-2-2-5-5-5-5-7-7-7-7--33-55---|
|-0-0-0-0-3-3-3-3-5-5-5-5----------|

|----------------------------------|
|----------------------------------|
|----------------------------------|
|-2-2-2-2-5-5-5-5-7-7-7-7----------|
|-2-2-2-2-5-5-5-5-7-7-7-7----------|
|-0-0-0-0-3-3-3-3-5-5-5-5----------|


|----------------------------------------------------------------------|
|----------------------------------------------------------------------|
|-5-5-5-5-5-5-5-5--7-7-7-7--9-9-9-9--11111111111111111111111111111111--|
|----------------------------------------------------------------------|
|-3-3-3-3-3-3-3-3--5-5-5-5--7-7-7-7--9-9-9-9-9-9-9-9-9-9-9-9-9-9-9-9---|
|----------------------------------------------------------------------|

|----------------------------------------------------------------------|
|----------------------------------------------------------------------|
|-7-7-7-7-7-7-7-7-9-9-9-9-11-11-11-11-14141414141414141414141414141414-|
|----------------------------------------------------------------------|
|-5-5-5-5-5-5-5-5-7-7-7-7-9--9--9--9--12121212121212121212121212121212-|
|----------------------------------------------------------------------|
GtrII
|-------------------------------------------------------------|
|-------------------------------------------------------------|
|-9-9-9-9------------------55-77----9999-7777-6666-5----7-----|
|-9-9-9-9-5-5-5-5-7-7-7-7--55-77-------------------5----7-----|
|-7-7-7-7-5-5-5-5-7-7-7-7--33-55----7777-5555-4444-3----5-----|
|---------3-3-3-3-5-5-5-5-------------------------------------|
                                   
|-------------------------------------------------------------|
|-------------------------------------------------------------|
|-9-9-9-9------------------55-77----9999----------------------|
|-9-9-9-9-5-5-5-5-7-7-7-7--55-77----9999-5555-7777------------|
|-7-7-7-7-5-5-5-5-7-7-7-7--33-55----7777-5555-7777------------|
|---------3-3-3-3-5-5-5-5----------------3333-5555------------|

|----------------------------------------------------------------------|
|----------------------------------------------------------------------|
|-55555555555555555555555555555-777777777777777777777777777777777------|
|----------------------------------------------------------------------|
|-33333333333333333333333333333-555555555555555555555555555555555------|
|----------------------------------------------------------------------|

end with

|------------------------------------|
|------------------------------------|
|------------------------------------|
|-77---77---77---77---7--------------|
|-77---77---77---77---7--------------|
|-55---55---55---55---5--------------|


----------------------------------------------------------------------------
                                   4. 4:20 (4:22)
----------------------------------------------------------------------------
 

Intro-
GtrI
|--------------------------------------------------------------|
|--------------------------------------------------------------|
|-------------99--------------------------99-------------------|
|-99--66--77--99--------------99--66--77--99-------------------|4x
|-77--77--77--77--------------77--77--77--77-------------------|
|--------------------------------------------------------------|

Bass
|-----------88-99--------88-99-------88-99-------8-------------|
|---------99----------99-----------99---------99---------------|
|-19/--77----------77-----------77---------77------------------|
|--------------------------------------------------------------|

GtrII
0:05
|---------------------------------------------------000000000--|
|---------------------------------------------------000000000--|
|------------------------------------999999999999999999999999--|
|------------------999999999999999999999999999999999999999999--|
|------------------777777777777777777777777777777777777777777--|
|--------------------------------------------------------------|
                   ******************

GtrI&II
|------------------------------------------------------------------------|
|------------------------------------------------------------------------|
|--9999999999999999-6666666666666666-8888888888888888-666666666666666666-|
|--9999999999999999-7777777777777777-9999999999999999-777777777777777777-|
|--7777777777777777-7777777777777777-9999999999999999-777777777777777777-|
|-------------------5555555555555555-7777777777777777-555555555555555555-|
GtrIII(synth)
|--------------------------------------------------------|
|--9---10-9-12--9---10-9-12--9---10-9-12--9---10-9-12----|
|-9---9--------9--9---------9---9--------9---9-----------|
|--------------------------------------------------------|
|--------------------------------------------------------|
|--------------------------------------------------------|

|-------------12--------------------12-------------------------------------|
|---9--10-9-12--12-10-9----9-10-9-12--12-10-9---9-12-9-12--10-9---10-9~----|
|-9----------------------9---------------------9---------------------------|
|--------------------------------------------------------------------------|
|--------------------------------------------------------------------------|
|--------------------------------------------------------------------------|

Verse-
420 na naman...            nanjan ka naman,,,
|------------------------------------------------|
|--------------------------9-----55----44--------|
|--------------66----------9-----66----44-66-----|
|--------------77----------9-----66----66-77-----|4x
|--------------77----------7-----44----66-77-----|
|--------------55----------------------44-55-----|

Refrain-
|------------------------------------|
|------------------------------------|
|-999999999999999-6666666666666666---|
|-999999999999999-7777777777777777---|2x
|-777777777777777-7777777777777777---|
|-----------------5555555555555555---|

|------------------------------|
|------------------------------|
|------------------------------|
|-88888888-6-------------------|
|-99999999-7-------------------|
|-99999999-7-------------------|
|-77777777-5-------------------|
  ******
Chorus-
GtrI
|---------------------------------------------------------------------|
|---------------------------------------------------------------------|
|-9999999999999999-666666666666666-66666666-44444444-6666666666666666-|
|-9999999999999999-777777777777777-66666666-44444444-7777777777777777-|
|-7777777777777777-777777777777777-44444444-22222222-7777777777777777-|
|------------------555555555555555-------------------5555555555555555-|

|---12-11--------9-----------12-11--------9----------12-11--------9------|
|-9-------9-12-9---12-9----9-------9-12-9---12-9---9-------9-12-9---12-9-|
|------------------------------------------------------------------------|
|------------------------------------------------------------------------|3x
|------------------------------------------------------------------------|
|------------------------------------------------------------------------|
GtrII
|---------------------------------------------------------------------|
|---------------------------------------------------------------------|
|-9999999999999999-666666666666666-66666666-44444444-6666666666666666-|
|-9999999999999999-777777777777777-66666666-44444444-7777777777777777-|2x
|-7777777777777777-777777777777777-44444444-22222222-7777777777777777-|
|------------------555555555555555-------------------5555555555555555-|

Do intro-
Verse-chorus-
Do intro-
(mmm sarap}
|---------------|
|---------------|
|-99999999999---|
|-99999999999---|
|-77777777777---|
|---------------|


|-------------------------------------|
|-------------------------------------|
|---------6-6-6-6-------------7-----9-|
|-7-7-7-7-6-6-6-6-4-4-4-4-777-7-999-9-|4x
|-7-7-7-7-4-4-4-4-4-4-4-4-555-5-777-7-|
|-5-5-5-5---------2-2-2-2-------------|
                          ***   *** 
then GtrI A - C#m - D - E 

Do refrain to chorus

----------------------------------------------------------------------------
                           5. Meron Akong Ano (4:42)
----------------------------------------------------------------------------

Intro-

GtrI
|-----------------------------------------------------|
|-----------------------------------------------------|
|-----------------------------------------------------|
|-----------------------------------------------------|2x
|-----------------------------------------------------|
|-0h2-222-000-0h3-333-555--0h2-222-000-0h3-333-555----|


GtrII
|-----------------------------------------------------|
|-----------------------------------------------------|
|-----------------------------------------------------|
|-----------------------------------------------------|4x
|-----------------------------------------------------|
|-0h2-222-000-0h3-333-555--0h2-222-000-0h3-333-555----|


GtrI&II
|-----------------------------------------------------|
|-----------------------------------------------------|
|-----------------------------------------------------|
|-----------------------------------------------------|
|-3333-4444-5555-6-------3333-4444-5555-6-------------|
|-1111-2222-3333-4-------1111-2222-3333-4-------------|

|-----------------------------------------------------|
|-----------------------------------------------------|
|-----------------------------------------------------|
|-----------------------------------------------------|
|-3333-4444-5555-6-------3333-4444-5555-6---4--2~-----|
|-1111-2222-3333-4-------1111-2222-3333-4---2--0~-----|

then
GtrI
|-----------------------------------------------------|
|-----------------------------------------------------|
|----------------------/4444-xxx--/5555---------------|
|-----------------------------------------------------|
|----------------------/2222-xxx--/3333---------------|
|-0222-0222-0222-0222---------------------------------| 
  **** **** **** ****
  
 Verse(do 2x)gtrI 
|-----------------------------------------------------|
|-----------------------------------------------------|
|-----------------------------------------------------|
|-----------------------------------------------------|
|-----------------------------------------------------|
|-0222-0222-0222-02-----------------------------------|
  **** **** **** **

|-----------------------------------------------------|
|-----------------------------------------------------|
|-------------------xxx3/4444-xxx-4/5555--------------|
|-------------------xxx-------------------------------|
|-------------------xxx1/2222-xxx-2/3333--------------|
|-0222-0222-0222-02-xxx-------------------------------| 
  **** **** **** ** 

 Verse-

GtrI @ GtrII
|-----------------------------------------------------|
|-----------------------------------------------------|
|-------------------xxx3/4444-xxx-4/5555--------------|
|-------------------xxx-------------------------------|2x
|-------------------xxx1/2222-xxx-2/3333--------------|
|-0222-0222-0222-02-xxx-------------------------------| 
  
 then
|-----------------------------------------------------|
|-----------------------------------------------------|
|--------------------4~-------------------------4~----|
|-2~-------3~--------4~------2~-------3~--------4~----|
|-2~-------3~--------2~------2~-------3~--------2~----|
|-0~-------1~----------------0~-------1~--------------|

prechorus-
GtrI-
|-----------------------------------------------------|
|-----------------------------------------------------|
|-----------------------------------------------------|
|-----------------------------------------------------|2x
|-----------------------------------------------------|
|-0h2-222-000-0h3-333-555--0h2-222-000-0h3-333-555----|
GtrII
|-----------------------------------------------------|
|-----------------------------------------------------|
|-----------------------------------------------------|
|-4~-----4--------4~----------------------------------|
|-4~-----4--------4~----------------------------------|
|-2~-----2--------2~----------------------------------|

Chorus-GtrI&GtrII

GtrI
|-----------------------------------------------------|
|-----------------------------------------------------|
|-----------------------------------------------------|
|-----------------------------------------------------|4x
|-----------------------------------------------------|
|-0h2-222-000-0h3-333-555--0h2-222-000-0h3-333-555----|


then
|-----------------------------------------------------|
|-----------------------------------------------------|
|-----------------------------------------------------|
|-----------------------------------------------------|
|-3333-4444-5555-6-------3333-4444-5555-6-------------|
|-1111-2222-3333-4-------1111-2222-3333-4-------------|

|-----------------------------------------------------|
|-----------------------------------------------------|
|-----------------------------------------------------|
|-----------------------------------------------------|
|-3333-4444-5555-6-------3333-4444-5555-6---4--2~-----|
|-1111-2222-3333-4-------1111-2222-3333-4---2--0~-----|

then
|-----------------------------------------------------|
|-----------------------------------------------------|
|---------------------3/4444-xxx-4/5555---------------|
|-----------------------------------------------------|
|---------------------1/2222-xxx-2/3333---------------|
|-0222-0222-0222-0222---------------------------------| 
  **** **** **** ****

Do Verse to Chorus-
Interlude
GtrI
|----------------------------------------|
|----------------------------------------|
|-999999-777777777-1212121212121212------|
|----------------------------------------|4x
|-777777-555555555-1010101010101010------|
|----------------------------------------|

GtrII
|----------------------------------------|
|----------------------------------------|
|----------------------------------------|
|-7-7-7-7-7-7-7-7-7-7-7-7-7-7-7-7--------|
|-5-5-5-5-5-5-5-5-5-5-5-5-5-5-5-5--------|
|----------------------------------------|

then-GtrI&GtrII
|---------------------------------|
|---------------------------------|
|---------------------------------|
|-2-2-2-22-2-22-2-2----22-22-22---|
|-2-2-2-22-2-22-2-2----22-22-22---|
|-0-0-0-00-0-00-0-0----00-00-00---|

|-----------------------------------------------------|
|-----------------------------------------------------|
|-----------------------------------------------------|
|-2-2-2-22-2-22-2-2----22-22-22---22-22-22------------|
|-2-2-2-22-2-22-2-2----22-22-22---22-22-22------------|
|-0-0-0-00-0-00-0-0----00-00-00---00-00-00------------|

|-----------------------------------------------------|
|-----------------------------------------------------|
|-----------------------------------------------------|
|-2-2-2-22-2-22-2-2------2-2-2-22-2-22-2-2------------|
|-2-2-2-22-2-22-2-2------2-2-2-22-2-22-2-2------------|
|-0-0-0-00-0-00-0-0------0-0-0-00-0-00-0-0------------|


GtrI
|-----------------------------------------------------|
|------------------5~--7~--8-10-7-8~------------------|
|-9~--7~--5~---4~-------------------------------------|
|-9~--7~--5~---5~-------------------x-xxx-x-xxx-------|
|-7~--5~--3~---5~-------------------x-xxx-x-xxx-------|
|--------------3~-------------------x-xxx-x-xxx-------|

GtrI
|-0~--0~--0~---0~----0~--0~--0~-----------------------|
|-0~--0~--0~---0~----0~--0~--0~-----------------------|
|-9~--7~--5~--12~----9~--7~--5~-----------------------|
|-9~--7~--5~---x-----9~--7~--5~-x-xxx-x-xxx-----------|
|-7~--5~--3~--10~----7~--5~--3~-x-xxx-x-xxx-----------|
|-------------------------------x-xxx-x-xxx-----------|


Do verse-to chorus
GtrI&II

|-----------------------------------------------------|
|-----------------------------------------------------|
|-----------------------------------------------------|
|-44--44-44----44--44-44-----44--44-44---44--44-44----|
|-44--44-44----44--44-44-----44--44-44---44--44-44----|
|-22--22-22----22--22-22-----22--22-22---22--22-22----|


|-----------------------------------------------------|
|------------------------------------------4^~--------|
|-----------------------------------------------------|
|-----------------------------------------------------|
|-3333-4444-5555-6-------3333-4444-5555-6-------------|
|-1111-2222-3333-4-------1111-2222-3333-4-------------|

|-----------------------------------------------------|
|-----------------------------------------------------|
|-----------------------------------------------------|
|-----------------------------------------------------|
|-3333-4444-5555-6-------3333-4444-5555-6---4--2~-----|
|-1111-2222-3333-4-------1111-2222-3333-4---2--0~-----|
end

----------------------------------------------------------------------------
                     6. Balutin Mo Ako (0:47) 
----------------------------------------------------------------------------

Chorus ng bituing walang ningning...tubeg,,,







----------------------------------------------------------------------------
                              7. Wala (5:26)
----------------------------------------------------------------------------

GtrI  ( e b g d a E ) Jomal

GtrII ( e b g d a E ) Led
Intro-
GtrI
|---------------------------------------------------------------|
|-----------9h10-10--9h10-10--9h10-10--9h10-10--9h10-9h10-------|
|-------8h9-9----9---9----9---9----9---9----9---9----9----------|
|-6/7-9---------------------------------------------------------|
|---------------------------------------------------------------|
|---------------------------------------------------------------|


|---------------------------------------------|
|-9h10-10--9h10-10--9h10-10--9h10-10----------|
|-9----9---9----9---9----9---9----9-----------|
|--------------------------------------x------|
|--------------------------------------x7-7---|
|--------------------------------------x5-5---|
                                        * *
GtrI&II
|-------------------------------------------------------------------|
|-------------------------------------------------------------------|
|-----66-77-----------------77-99------66-77---------------4-6-7----|
|-777-66-77----------7--99--77-99--777-66-77----------777--4-6-7----|
|-777-44-55-22-4-2---7--99--55-77--777-44-55-22-4-2---777--2-4-5----|
|-555-------00-2-0---5--77---------555-------00-2-0---555-----------|


Verse-
GtrI&II

|--------------------|
|--------------------|
|--------------------|
|-7------------------|
|-7-77777777777------|
|-5-55555555555------|
    ********
|------------------------------------------------------------------------|
|------------------------------------------------------------------------|
|--------------------------7-7-7-7----------------------------7-7-7-7----|
|-7-7-7-7-7-7-7-7--5-5-5-5-7-7-7-7---7-7-7-7-7-7-7-7--5-5-5-5-7-7-7-7----|
|-7-7-7-7-7-7-7-7--5-5-5-5-5-5-5-5---7-7-7-7-7-7-7-7--5-5-5-5-5-5-5-5----|
|-5-5-5-5-5-5-5-5--3-3-3-3-----------5-5-5-5-5-5-5-5--3-3-3-3------------|

|------------------------------------------------------------------------|
|------------------------------------------------------------------------|
|--------------------------7-7-7-7----------------------------7-7-7-7----|
|-7-7-7-7-7-7-7-7--5-5-5-5-7-7-7-7---7-7-7-7-7-7-7-7--5-5-5-5-7-7-7-7----|
|-7-7-7-7-7-7-7-7--5-5-5-5-5-5-5-5---7-7-7-7-7-7-7-7--5-5-5-5-5-5-5-5----|
|-5-5-5-5-5-5-5-5--3-3-3-3-----------5-5-5-5-5-5-5-5--3-3-3-3------------|

Pre-chorus-clap[ your hands :}
|------------------------------------|
|------------------------------------|
|------------------------------------|
|-xx--xxxx--xx-xxxx--xx--xxxxxxxx----|
|-xx--xxxx--xx-xxxx--xx--xxxxxxxx----|
|-xx--xxxx--xx-xxxx--xx--xxxxxxxx----|

Chorus-
GtrI&II
|-------------------------------------------------------------------|
|-------------------------------------------------------------------|
|---------------------------77-99------66-77-----------------77-99--|
|-7------------------7--99--77-99--777-66-77----------7--99--77-99--|
|-7------------------7--99--55-77--777-44-55-22-4-2---7--99--55-77--|
|-5------------------5--77---------555-------00-2-0---5--77---------|


|-------------------------------------------------------------------|
|-------------------------------------------------------------------|
|-----66-77-----------------77-99------66-77---------------4-6-7----|
|-777-66-77----------7--99--77-99--777-66-77----------777--4-6-7----|
|-777-44-55-22-4-2---7--99--55-77--777-44-55-22-4-2---777--2-4-5----|
|-555-------00-2-0---5--77---------555-------00-2-0---555-----------|


for free lesson just txt: 09283150081
Verse-
GtrI&II
|--------------------|
|--------------------|
|--------------------|
|-7-77777777777------|
|-7-77777777777------|
|-5-55555555555------|
    ********
|------------------------------------------------------------------------|
|------------------------------------------------------------------------|
|--------------------------7-7-7-7----------------------------7-7-7-7----|
|-7-7-7-7-7-7-7-7--5-5-5-5-7-7-7-7---7-7-7-7-7-7-7-7--5-5-5-5-7-7-7-7----|
|-7-7-7-7-7-7-7-7--5-5-5-5-5-5-5-5---7-7-7-7-7-7-7-7--5-5-5-5-5-5-5-5----|
|-5-5-5-5-5-5-5-5--3-3-3-3-----------5-5-5-5-5-5-5-5--3-3-3-3------------|

(Paradise City-Guns 'n Roses -intro-)
|-3----3---3-----3----3---3----3---3---3---3---3----3---3---|
|-3-3-3-3-3--3---3-3-3-3-3-3---3--3-3--3--3-3--3-3-3-3-3-3--|
|-0--0---0----0--0--0---0---0--0-0---0-0-0---0-0--0---0---0-|
|-0--------------2-------------3-------2-------0------------|
|-2--------------3---------------------3-------2------------|
|-3--------------------------------------------3------------|


|------------------------------------------------------------------------|
|------------------------------------------------------------------------|
|--------------------------7-7-7-7----------------------------7-7-7-7----|
|-7-7-7-7-7-7-7-7--5-5-5-5-7-7-7-7---7-7-7-7-7-7-7-7--5-5-5-5-7-7-7-7----|
|-7-7-7-7-7-7-7-7--5-5-5-5-5-5-5-5---7-7-7-7-7-7-7-7--5-5-5-5-5-5-5-5----|
|-5-5-5-5-5-5-5-5--3-3-3-3-----------5-5-5-5-5-5-5-5--3-3-3-3------------|
Do Pre-chorus-and Chorus

Pakirate!!!
kung may reklamo magcomment naman kayo...tsk,tsk...
sayang naman effort ko,,,hehehe thanks!!!
for free lesson just txt: 09283150081
Interlude-
GtrI
|------------------------------------------------------------------------|
|------------------------------------------------------------------------|
|------------------------------------------------------------------------|
|-777-6-5------555-4-3---------------777-6-5------555-4-3----------------|
|-777-6-5------555-4-3--/7^-/7^-7^7^-777-6-5------555-4-3----------------|
|-555-4-3------333-2-1---------------555-4-3------333-2-1----------------|
GtrII
|----------------------------------------------------------10--10--10----|
|----------------------------------------------------------13^-13^-13^---|
|------------------------------------------------------------------------|
|-777-6-5------555-4-3---------------777-6-5------555-4-3----------------|
|-777-6-5------555-4-3--/7^-/7^-7^7^-777-6-5------555-4-3----------------|
|-555-4-3------333-2-1---------------555-4-3------333-2-1----------------|

Solo-
for free lesson just txt: 09283150081
GtrI
|-------------------------------------------------10--10--10---12--12--12--|
|--9h10-10--9h10-10--9h10-10--9h10-10--9h10-9h10--13^-13^-13^--13^-13^-13^-|
|--9----9---9----9---9----9---9----9---9----9------------------------------|
|--------------------------------------------------------------------------|
|--------------------------------------------------------------------------|
|--------------------------------------------------------------------------|

|-121512--121512--121512--121512--121512--121512--121512--12---15^-15^-15^r-|
|-------15------15------15------15------15------15------15------------------|
|---------------------------------------------------------------------------|
|---------------------------------------------------------------------------|
|---------------------------------------------------------------------------|
|---------------------------------------------------------------------------|

GtrII

|--------------------------------------------------------------------------|
|--------------------------------------------------------------------------|
|----------------------------7-7-7-7------------------------------7-7-7-7--|
|-7-7-7-7-7-7-7-7---5-5-5-5--7-7-7-7---7-7-7-7-7-7-7-7---5-5-5-5--7-7-7-7--|
|-7-7-7-7-7-7-7-7---5-5-5-5--5-5-5-5---7-7-7-7-7-7-7-7---5-5-5-5--5-5-5-5--|
|-5-5-5-5-5-5-5-5---3-3-3-3------------5-5-5-5-5-5-5-5---3-3-3-3-----------|

then
GtrI
|---------------------------------------------------------------------------------|
|-------------------------14h15-15-14h15-15-14h15-15-14h15-15-14h15--14h15--------|
|-------------------------14----14-14----14-14----14-14----14-14-----14-----------|
|-777-5-7-5--77-2-----------------------------------------------------------------|
|-777-5-7-5--55-0-5h7-5p3---------------------------------------------------------|
|-555-3-5-3-----------------------------------------------------------------------|


|--------------------------------------------------------0~-----------------|
|-14^(15)-14~--14h15-14-12--15-14-12---------------------0~-----------------|
|------------------------------------14-12-------------/-2~-----------------|
|------------------------------------------14-12-10~-1O/-2~-----------------|
|------------------------------------------------------/-0~-----------------|
|---------------------------------------------------------------------------|
for free lesson just txt: 09283150081
GtrII
|---------------------------------------------------------------------------------|
|---------------------------------------------------------------------------------|
|-----------------7/9-7-5-----------7-7-7-7------------------------------7-7-7-7--|
|-777-5-7-5--77-2-----7-5--5-5-5-5--7-7-7-7---7-7-7-7-7-7-7-7---5-5-5-5--7-7-7-7--|
|-777-5-7-5--55-0-5/7-5-3--5-5-5-5--5-5-5-5---7-7-7-7-7-7-7-7---5-5-5-5--5-5-5-5--|
|-555-3-5-3----------------3-3-3-3------------5-5-5-5-5-5-5-5---3-3-3-3-----------|


GtrI
|-0~------------------0~--------0~------0~------------------0~----0~-------|
|-0~------------------0~---------0~-----0~------------------0~------0~-----|
|-2~------------------2~----------2~----2~------------------2~--------2~---|
|-2~------------------2~----------------2~------------------2~--------2~---|
|-0~------------------0~----------------0~------------------0~--------0~---|
|--------------------------------------------------------------------------|

GtrII strum A(577x00)

at sa kin an huling hlakhak... PUTANG INA NYO!!
then GtrI & II
|------------------------------------|
|------------------------------------|
|------------------------------------|
|-xx--xxxx--xx-xxxx--xx--xxxxxxxx----|2x
|-xx--xxxx--xx-xxxx--xx--xxxxxxxx----|
|-xx--xxxx--xx-xxxx--xx--xxxxxxxx----|

Chorus-GtrI&II
|-------------------------------------------------------------------|
|-------------------------------------------------------------------|
|------------------------------------------------------------77-99--|
|-7--------------------------------------------------77--99--77-99--|
|-7--------------------------------------------------77--99--55-77--|
|-5--------------------------------------------------55--77---------|

|-------------------------------------------------------------------|
|-------------------------------------------------------------------|
|-----66-77-----------------77-99------66-77-----------------77--99-|
|-777-66-77----------7--99--77-99--777-66-77----------77--99-77--99-|
|-777-44-55-22-4--2--7--99--55-77--777-44-55-22-4--2--77--99-55--77-|
|-555-------00-2--0--5--77---------555-------00-2--0--55--77--------|


|---------------------------------0~----0----------|
|---------------------------------0~-----0---------|
|--------77--99----------77--99---2~------2~-------|
|-77--99-77--99---77--99-77--99---2~------2~-------|
|-77--99-55--77---77--99-55--77---0~------0~-------|
|-55--77----------55--77---------------------------|


for free lesson just txt: 09283150081
GtrI
|-0~------------------0~----------------------------0~----0~--------0-~|
|--0~-----------------0~----------------------------0~------0~------0~-|
|----2~---------------2~---------2h44444444---------2~--------2~----2~-|
|---------------------2~----------------------------2~--------2~----2~-|
|---------------------0~----------------------------0~--------0~----0~-|
|----------------------------------------------------------------------|

GtrIIGtrII strum A(577x00)






----------------------------------------------------------------------------
                           8. Lalandiin (4:06)
----------------------------------------------------------------------------



Intro-
GtrI&II
|-------------------------------|
|-------------------------------|
|-9--8--7--6--5--4--3~----------|
|-9--8--7--6--5--4--3~----------|
|-7--6--5--4--3--2--1~----------|
|-------------------------------|

GtrI GtrII(Em)
|--------------------------------------------|
|--------------------------------------------|
|-7-99---7-99------7-99-----7-99------99999--|
|-7-99---7-99------7-99-----7-99------99999--|
|-5-77---5-77------5-77-----5-77------77777--|
|--------------------------------------------|

GtrI GtrII (em G A A)
|----7--------------------------7------------------------|
|----8------3-5--555555---------8------3-5--555555-------|
|-7-99------4-6--666666------7-99------4-6--666666-------|
|-7-99-xxxx-5-7--777777------7-99-xxxx-5-7--777777-------|
|-5-77-xxxx-5-7--777777------5-77-xxxx-5-7--777777-------|
|------xxxx-3-5--555555-----------xxxx-3-5--555555-------|

|----7--------------------------7--------5~-|
|----8------3-5--555555---------8------3-5~-|
|-7-99------4-6--666666------7-99------4-6~-|
|-7-99-xxxx-5-7--777777------7-99-xxxx-5-7~-|
|-5-77-xxxx-5-7--777777------5-77-xxxx-5-7~-|
|------xxxx-3-5--555555-----------xxxx-3-5~-|


Verse-
GtrI
|--7~--------------------------------------------------------------------|
|-----8~-----------------------------------------------------------------|
|--------9~--------------------9~------7---6~----------------------------|
|------------------------------------------------------------------------|
|------------------------------------------------------------------------|
|------------------------------------------------------------------------|

GtrII
Strum Em then
|----------------------------|
|-(8)/10-7/8-----------------|
|-------------/9~------------|
|----------------------------|
|----------------------------|
|----------------------------|

GtrI
|------------------------------------------------------------------------|
|------------------------------------------------------------------------|
|------------------------------------------------------------------------|
|--------------5~-------------------------55-7b~-------------------------|
|-5-7-5h7~--77----------------5-7-5h7~--7--------------------------------|
|------------------------------------------------------------------------|

|--7~--------------------------------------------------------------------|
|-----8~-----------------------------------------------------------------|
|--------9~--------------------------------------------------------------|
|------------------------------------------------------------------------|
|------------------------------------------------------------------------|
|------------------------------------------------------------------------|

GtrII
Strum Em then
|----------------------------|
|-(8)/10-7/8-----------------|
|-------------/9~------------|
|----------------------------|
|----------------------------|
|----------------------------|
refrain
GtrI
GtrII Em
|--------------------------------------------|
|--------------------------------------------|
|-7-99---7-99------9-99-----9-99------9--9---|
|-7-99---7-99------9-99-----9-99------9--9---|
|-5-77---5-77------7-77-----7-77------7--7---|
|--------------------------------------------|

Chorus-
GtrI GtrII (em G A A)
|----7--------------------------7------------------------|
|----8------3-5--555555---------8------3-5--555555-------|
|-7-99------4-6--666666------7-99------4-6--666666-------|
|-7-99-xxxx-5-7--777777------7-99-xxxx-5-7--777777-------|2x
|-5-77-xxxx-5-7--777777------5-77-xxxx-5-7--777777-------|
|------xxxx-3-5--555555-----------xxxx-3-5--555555-------|


Verse-
|--7~--------------------------------------------------------------------|
|-----8~-----------------------------------------------------------------|
|--------9~--------------------9~------7---6~----------------------------|
|------------------------------------------------------------------------|
|------------------------------------------------------------------------|
|------------------------------------------------------------------------|

|------------------------------------------------------------------------|
|------------------------------------------------------------------------|
|------------------------------------------------------------------------|
|--------------5~-------------------------55-7b~-------------------------|
|-5-7-5h7~-777----------------5-7-5h7~--7--------------------------------|
|------------------------------------------------------------------------|

|--7---9---10---9---10-----------9--7----------------------------------|
|----8---88--8----8---8-----888-8------8-------------------------------|
|------------------------------------------9---------------------------|
|----------------------------------------------------------------------|
|----------------------------------------------------------------------|
|----------------------------------------------------------------------|
GtrII same as VerseI

Refrain-Chorus-
GtrI
|--------------------------------------------|
|--------------------------------------------|
|--------------------------------------------|
|--------------------------------------------|2x
|-777777777777777777777777-1010101012121212--|
|--------------------------------------------|

then
 GtrI
|--------------------------------------------|
|--------------------------------------------|
|--------------------------------------------|
|--------------------------------------------|2x
|-777777777777777777777777-1010101012121212--|
|--------------------------------------------|
GtrII Em G A

GtrI GtrII Em
|----------------------------|
|----------------------------|
|-9-99-----9-99------9~-xxxx-|
|-9-99-----9-99------9~-xxxx-|
|-7-77-----7-77------7~-xxxx-|
|----------------------------|

Chorus-

Verse-
GtrI

GtrII same as verse-
|-7~---7---9----7---9----------------------------------------------------|
|-8~-----8----8---8------8h10p8--------8h10p8----------------------------|
|-9~-----------------------------9-------------9-------------------------|
|-------------------------------------------------/5---------------------|
|------------------------------------------------------5-7-5h7-----------|
|------------------------------------------------------------------------|


|-7~------------7~-------------------------------------------------------|
|-8~------------8~-------8h10p8----------------8~--------8~--------------|
|-9~------------9~--------------9--------9-7-9-------9-7-9~--------------|
|------------------------------------------------------------------------|
|------------------------------------------------------------------------|
|------------------------------------------------------------------------|


|------------------------------------------------------------------------|
|--8h10p8h10p8h10p8h10p8h10p8h10p8h10p8h10p8h10p8h10p8h10p8h10p8h10p8----|
|------------------------------------------------------------------------|
|------------------------------------------------------------------------|
|------------------------------------------------------------------------|
|------------------------------------------------------------------------| 

--------------------------------------------------------------------------
   9. Unang Tikim (4:07)tingnan nyo na lang ung kay rhyezeki..tinatamad akong magtab...hehehe

--------------------------------------------------------------------------

http://www.ultimate-guitar.com/tabs/k/kamikazee/unang_tikim_tab.htm



--------------------------------------------------------------------------
                                10. Alay (3:44)

--------------------------------------------------------------------------

Intro-
|---------------------------------------------------------------------------|
|-22-333-2-x-22-222-3-x-22-222-333333-22222-333333-22222222222--33333333333-|
|-22-222-2-x-22-222-2-x-22-222-222222-22222-222222-22222222222--22222222222-|
|-00-000-0-x-00-000-0-x-00-000-000000-00000-000000--------------------------|
|--------------------------------------------------22222222222--------------|
|---------------------------------------------------------------33333333333-|

|-----------------------------------------------------|
|-22-222-333333-22222-333333-22222222222--33333333333-|
|-22-222-222222-22222-222222-22222222222--22222222222-|
|-00-000-000000-00000-000000--------------------------|
|----------------------------22222222222--------------|
|-----------------------------------------33333333333-|

Verse-
|-----------------------------------------------------|
|-33-333-333333-33333-333333-22222222222--33333333333-|
|-22-222-222222-22222-222222-22222222222--22222222222-|
|-00-000-000000-00000-000000--------------------------|2x
|----------------------------22222222222--------------|
|-----------------------------------------33333333333-|

Refrain
|-----------------------------|
|-33333-333333-33333-333333---|
|-22222-222222-22222-222222---|
|--------------------000000---|
|-------000000-22222----------|
|-33333-----------------------|

|-----------------------------|
|-33333-333333-33333-333333---|
|-22222-222222-22222-222222---|
|-----------------------------|
|-------000000-22222-222222---|
|-33333-----------------------|


|-----------------------------|
|-33333-333333-33333-333333---|
|-22222-222222-22222-222222---|
|--------------------000000---|
|-------000000-22222----------|
|-33333-----------------------|

|-----------------|
|-33333-3--33333--|
|-22222-2--22222--|
|-------2~--------|
|-------0~-00000--|
|-33333-----------|

Chorus-
|-------------------------------------------|
|-33333333-333333333-33333333-33333333------|
|-22222222-222222222-22222222-22222222------|
|-----------------------------00000000------|2x
|----------000000000-22222222---------------|
|-33333333----------------------------------|

Do intro
Do verse-to chorus

then Gtr I do this 2x

|-------------------------------------------------------------------------|
|-------------------------------------------------------------------------|
|-11111111111111111-999999999999999-77777777777777-1414141414141414141414-|
|-------------------------------------------------------------------------|
|-9999999999999999--777777777777777-55555555555555-1212121212121212121212-|
|-------------------------------------------------------------------------|

|--------------------------------------------------------------------------|
|--------------------------------------------------------------------------|
|-11111111111111111-999999999999999-77777777-9999-11111-141414141414141414-|
|--------------------------------------------------------------------------|
|-9999999999999999--777777777777777-55555555-7777-9999--121212121212121212-|
|--------------------------------------------------------------------------|

GtrII do chorus2x till 

outro
|----------------------|
|-22-333-2--22-222-3~--|
|-22-222-2--22-222-2~--|
|-00-000-0--00-000-0~--|
|----------------------|
|----------------------|







------------------------------------------------------------------------------
                             11. Hot Mami (6:05)
------------------------------------------------------------------------------
Intro-
1.GtrI& II
|---------------------------------------------------------------------|
|-9~~~~~~~~~~~~~~~~~~~~~~~~~~~~~~~~~~~~~~~~~~~~~~~~~~~~~~~~~~~~~~~~---|
|-9~~~~~~~~~~~~~~~~~~~~~~~~~~~~~~~~~~~~~~~~~~~~~~~~~~~~~~~~~~~~~~~~---|
|---------------------------------------------------------------------|
|---------------------------------------------------------------------|
|---------------------------------------------------------------------|
Bass
|---------------------------------------------------------------------|
|---------------------------------------------------------------------|
|---------------------------------------------------------------------|
|-0000000000000333-0000000000000333-0000000000000333-0000000000000333-|
2.

Bass
|---------------------------------------------------------------------|
|---------------------------------------------------------------------|
|---------------------------------------------------------------------|
|-0000000000000333-0000000000000333-0000000000000333-0000000000000333-|
GtrI
|---------------------------------------------------------------------|
|-99-9-7-999-7----99-9-7-999-7-----99-9-7-999-7----99-9-7-999-7-------|
|-99-9-9-999-9----99-9-9-999-9-----99-9-9-999-9----99-9-9-999-9-------|
|---------------------------------------------------------------------|
|---------------------------------------------------------------------|
|---------------------------------------------------------------------|
GtrII
|---------------------------------------------------------------------|
|---------------------------------------------------------------------|
|-99-9-7-999-7----99-9-7-999-7-----99-9-7-999-7----99-9-7-999-7-------|
|-99-9-9-999-9----99-9-9-999-9-----99-9-9-999-9----99-9-9-999-9-------|
|---------------------------------------------------------------------|
|---------------------------------------------------------------------|
3.
GtrI
|---------------------------------------------------------------------|
|-99-9-7-999-7----99-9-7-999-7-----99-9-7-999-7----9------------------|
|-99-9-9-999-9----99-9-9-999-9-----99-9-9-999-9----9------------------|
|---------------------------------------------------------------------|
|---------------------------------------------------------------------|
|---------------------------------------------------------------------|
GtrII
|----------12--12-----------12--12----------12--12--------------------|
|----------15^-15^----------15^-15^---------15^-15^-------------------|
|---------------------------------------------------------------------|
|---------------------------------------------------------------------|
|---------------------------------------------------------------------|
|---------------------------------------------------------------------|


4.
GtrS
|---------------------------------------------------------------------|
|---------------------------------------------------------------------|
|---------------------------------------------------------------------|
|---------------------------------------------------------------------|2x
|---77^--77^-77^--7^-------------------77^--77^-77^--7^---------------|
|-0----0----0---0---0--7-6-5^--------0----0----0---0---0--7-6-5^------|

then...
GtrI
---------------------|
--99-9-7-999-7-------|
--99-9-7-999-7-------|
---------------------|
---------------------|
---------------------|
Verse-

GtrI
|---------------------------------------------------------------------|
|-99-9-7-999-7----99-9-7-999-7-----99-9-7-999-7----99-9-7-999-7-------|
|-99-9-9-999-9----99-9-9-999-9-----99-9-9-999-9----99-9-9-999-9-------|
|---------------------------------------------------------------------|
|---------------------------------------------------------------------|
|---------------------------------------------------------------------|
GtrII
|---------------------------------------------------------------------|
|---------------------------------------------------------------------|
|-99-9-7-999-7----99-9-7-999-7-----99-9-7-999-7----99-9-7-999-7-------|
|-99-9-9-999-9----99-9-9-999-9-----99-9-9-999-9----99-9-9-999-9-------|
|---------------------------------------------------------------------|
|---------------------------------------------------------------------|

GtrII(1:20)
|---------------------------------------------------------------------|
|------99-1010-10-9-9-12121212-----99-1010-10-9-9-12121212------------|
|------99-9-9--9--9-9-9-9-9-9------99-9-9--9--9-9-9-9-9-9-------------|
|---------------------------------------------------------------------|
|-/7\-----------------------------------------------------------------|
|---------------------------------------------------------------------|

|---------------------------------------------------------------------|
|------99-1010-10-9-9-12121212-----99-1010-10-9-9-12121212------------|
|------99-9-9--9--9-9-9-9-9-9------99-9-9--9--9-9-9-9-9-9-------------|
|---------------------------------------------------------------------|
|---------------------------------------------------------------------|
|---------------------------------------------------------------------|
Refrain
1.
Gtrs
|-------------------------------------------------------------------------|
|-------------------------------------------------------------------------|
|-------------------------------------------------------------------------|
|-------------------------------------------------------------------------|
|-77--89-xx-98-xx-87-xxxx-77--89-xx-98-xx-87-xxxx-77--89-xx-98-xx-87-xxxx-|
|-55--67-xx-76-xx-65-xxxx-55--67-xx-76-xx-65-xxxx-55--67-xx-76-xx-65-xxxx-|
2.
GtrI
|---------------------------------------------------------------------|
|---------------------------------------------------------------------|
|---------------------------------------------------------------------|
|-7-6-4444444444444---7-6-4444444444444------7-6-4444444444444--------|
|-5-4-2222222222222---5-4-2222222222222------5-4-2222222222222--------|
|---------------------------------------------------------------------|

GtrII
|---------------------------------------------------------------------|
|-----5-------5--------5-------5-------5------5-----5--5--------------|
|--7--7^---7--7^----7--7^---7--7^---7--7^--7--7^--7-7^-7~(3x)---------|
|---------------------------------------------------------------------|
|---------------------------------------------------------------------|
|---------------------------------------------------------------------|

then
|---------------------------------------------------------------------|
|---------------------------------------------------------------------|
|---------------------------------------------------------------------|
|-7-6-4-------7-6-4---------7-6-4-------7-6-4-------------------------|
|-5-4-2-------5-4-2---------5-4-2-------5-4-2-------5-4-2-------------|
|---------------------------------------------------3-2-0-------------|
Chorus-
|--------------------------------------|
|--------------------------------------|
|--------7-77-6-66----------7-77-6-66--|
|-222222-7-77-6-66---222222-7-77-6-66--|2x
|-222222-5-55-4-44---222222-5-55-4-44--|
|-000000-------------000000------------|


|--------------------------------------|
|--------------------------------------|
|-4---------4444-7----------7777-------|
|-44444444444444-777777777777777-------|
|-22222222222222-555555555555555-------|
|--------------------------------------|
   *********      **********

Do Verse to chorus
Interude-
GtrS
|---------------------------------------------------------------------|
|---------------------------------------------------------------------|
|---------------------------------------------------------------------|
|---------------------------------------------------------------------|2x
|---77^--77^-77^--7^-------------------77^--77^-77^--7^---------------|
|-0----0----0---0---0--7-6-5^--------0----0----0---0---0--7-6-5^------|

then
|-0~------------------------------------------------------------------|
|-0~------------------------------------------------------------------|
|-4~------------------------------------------------------------------|
|-4~------------------------------------------------------------------|
|-2~------------------------------------------------------------------|
|---------------------------------------------------------------------|

then GtrI  GtrII(strum E chord)
|--------------------------------------|
|-1010-9~-------1010-9~--109-10/12~----|
|-9-9--9~-77-9~-9-9--9~--9-9-----------|
|---------99-9~------------------------|
|--------------------------------------|
|--------------------------------------|

|--------------------------------------|
|-1010-9~-------1010-9~----------------|
|-9-9--9~-77-9~-9-9--9~----------------|
|---------99-9~------------------------|2x
|--------------------------------------|
|--------------------------------------|

then
|------------------------------------------------------|
|------------------------------------------------------|
|-9-7-9-xxxx-9-7-9-xxxx-9-7-9-xxxx-9-7-9-xxxx----------|
|-9-7-9-xxxx-9-7-9-xxxx-9-7-9-xxxx-9-7-9-xxxx------5~--|
|-7-5-7-xxxx-7-5-7-xxxx-7-5-7-xxxx-7-5-7-xxxx-22-2-5~--|
|---------------------------------------------00-0-3~--|
                                              ** *

|---------------------------------------------------------------------------|
|---------------------------------------------------------------------------|
|-9-7-9-xxxx-9-7-9-xxxx-9-7-9-xxxx-9-7-9-xxxx-------------------------------|
|-9-7-9-xxxx-9-7-9-xxxx-9-7-9-xxxx-9-7-9-xxxx------5~------5~------5~-5-6-7-|
|-7-5-7-xxxx-7-5-7-xxxx-7-5-7-xxxx-7-5-7-xxxx-22-2-5~-22-2-5~-22-2-5~-5-6-7-|
|---------------------------------------------00-0-3~-00-0-3~-00-0-3~-3-4-5-|
                                              ** *    ** *    ** *  
drum beats
Do Chorus
Do Intro

Do til' end
|---------------------------------------------------------------------|
|---------------------------------------------------------------------|
|---------------------------------------------------------------------|
|---------------------------------------------------------------------|
|---77^--77^-77^--7^-------------------77^--77^-77^--7^---------------|
|-0----0----0---0---0--7-6-5^--------0----0----0---0---0--7-6-5^------|


------------------------------------------------------------------------------------------
                        12. I Love You Ninang (0:04)
------------------------------------------------------------------------------------------


----------------------------------------------------------------------------
  13. Dragon Spa Super Head Charger Volume 4 (0:48) repeat up to sawa...
----------------------------------------------------------------------------
|----------------------------------------------------------------------|
|----------------------------------------------------------------------|
|----------------------------------------------------------------------|
|-2----2---2-2-2--333--2----2---2-2-2-333---2----2---2-2-2-333---------|
|-2-22-2-2-2-2-2--111--2-22-2-2-2-2-2-111---2-22-2-2-2-2-2-111---------|
|-0-00-0-0-0-0-0-------0-00-0-0-0-0-0-------0-00-0-0-0-0-0-------------|
    **   *               **   *               **   *     





----------------------------------------------------------------------------
                         14. Caintaenyo (0:08)
----------------------------------------------------------------------------
jay:naalala mo ba dati
jomal:hindi pa?
jay:yung pinapagalitan tayo ni ate
jomal:beket?
jay:nung kumakaen tayo ng tae..
jomal:tae..
hahahaha...



----------------------------------------------------------------------------
                                    15. M.M.K. (3:46)
----------------------------------------------------------------------------
Verse-

|-----------------------------------------------------------------|
|-----------------------------------------------------------------|
|-----0-------0-------0-------0-------0-------0-------0-------0---|
|---0---0---0---0---0---0---0---0---0---0---0---0---0---0---0---0-|2x
|-5-------5-------7-------7-------2-------2-------3-------3-------|
|-----------------------------------------------------------------|

|--------
|--------
|--555---
|--555---
|--333---
|--------
VerseII(Figue Palm muting)
|-----------------------------------------------------------------|
|-----------------------------------------------------------------|
|-9----------------7----------------4---------4-4--5--------------|
|-9-9-9-9-9-9-9-9--7-7-7-7-7-7-7-7--4-4-4-4-4-4-4--5-5-5-5-5-5-5--|2x
|-7-7-7-7-7-7-7-7--5-5-5-5-5-5-5-5--2-2-2-2-2-2-2--3-3-3-3-3-3-3--|
|-----------------------------------------------------------------|
Refrain-
|-----------------------------------------------------------------|
|-----------------------------------------------------------------|
|-7-7-7-7-7-7-7-7-7-7-7-7-7-7-7-7-5-5-5-5-5-5-5-5-5-5-5-5-5-5-5-5-|
|-7-7-7-7-7-7-7-7-7-7-7-7-7-7-7-7-5-5-5-5-5-5-5-5-5-5-5-5-5-5-5-5-|2x
|-5-5-5-5-5-5-5-5-5-5-5-5-5-5-5-5-3-3-3-3-3-3-3-3-3-3-3-3-3-3-3-3-|
|-----------------------------------------------------------------|

----------------|
----------------|
----------------|
----------------|
-33-22-00-2-0---|
--------------0-|

Chorus-

|-----------------------------------------------------------------|
|-----------------------------------------------------------------|
|---------------777777777777777-5555555555555555-555555555555555--|
|-5555555555555-777777777777777-5555555555555555-555555555555555--|2x
|-5555555555555-555555555555555-3333333333333333-333333333333333--|
|-3333333333333---------------------------------------------------|

Do verse 
GtrI(1:29)
|--------------------------------------------------|
|--------------------------------------------------|
|--------------------------------------------------|
|-999-77-555--999-77-555--444-55-777-444-55-777----|  2x
|--------------------------------------------------|
|--------------------------------------------------| 
  *** ** ***  *** ** ***  *** ** *** *** ** ***
Do Chorus-
Interlude-
GtrI
|----------------|------------------|----------------|---------------|
|---------0------|-----------0------|---------0------|--------0------|
|-----5----5---0-|-------7----7--7--|-3/55--5---5--0-|-55---5---5--0-|
|-5/77--7----7---|--3/55---5----5---|------5-----5---|----5-------5--|2x
|----------------|------------------|----------------|---------------|
|----------------|------------------|----------------|---------------|


then
GtrI
|----------------|------------------|----------------|---------------|
|---------0------|-----------0------|---------0------|--------0------|
|-----5----5---0-|-------7----7--7--|-3/55--5---5--0-|-55---5---5--0-|
|-5/77--7----7---|--3/55---5----5---|------5-----5---|----5-------5--|
|----------------|------------------|----------------|---------------|
|----------------|------------------|----------------|---------------|


|----------------|------------------|----0~----------|
|---------0------|-----------0------|----0~----------|
|-----5----5---0-|-------7----7--7--|----5~----------|
|-5/77--7----7---|--3/55---5----5---|----5~----------|
|----------------|------------------|----------------|
|----------------|------------------|----------------|


GtrII
|-----------10~-----------------------------------10~-------------|
|--8~---------------------8~--------------8~-------------8~-------|
|--7~---------------------7~-----7~-------7~-------------7~-------|
|-----------------------------------------------------------------|
|-----------------------------------------------------------------|
|-----------------------------------------------------------------|

do Chorus-

Outro-
|-----------------------------------------------------------------|
|-----------------------------------------------------------------|
|-----0-------0-------0-------0-------0-------0-------0-------0---|
|---0---0---0---0---0---0---0---0---0---0---0---0---0---0---0---0-|
|-5-------5-------7-------7-------2-------2-------3-------3-------|
|-----------------------------------------------------------------|


|------------------------------------------------------------|
|----------------------------------------------------0~------|
|-----0-------0-------0-------0-------0-------0-----0~-------|
|---0---0---0---0---0---0---0---0---0---0---0---0--0~--------|
|-5-------5-------7-------7-------2-------2-------3~---------|
|------------------------------------------------------------|


-----------------------------------------------------------------------------
  16. Chismosa (4:15)kung gusto  nyong itab ko..i-request nyo or message sa 
profile ko...hehehe.tinatamad na talaga ako...
---------------------------------------------------------------------------
 
 17. Teyk Awts (8:34)(bloopers)

---------------------------------------------------------------------------
                              18. Huli Ka Balbon (0:39)
---------------------------------------------------------------------------
GtrI
|----------------|------------------|----------------|---------------|
|---------0------|-----------0------|---------0------|--------0------|
|-----5----5---0-|-------7----7--7--|-3/55--5---5--0-|-55---5---5--0-|
|-5/77--7----7---|--3/55---5----5---|------5-----5---|----5-------5--|2x
|----------------|------------------|----------------|---------------|
|----------------|------------------|----------------|---------------|


then
GtrI
 Sorry...  kung ako ay....             bulbulen...bulbulen ..bulbulen...
|----------------|------------------|----------------|---------------|
|---------0------|-----------0------|---------0------|--------0------|
|-----5----5---0-|-------7----7--7--|-3/55--5---5--0-|-55---5---5--0-|
|-5/77--7----7---|--3/55---5----5---|------5-----5---|----5-------5--|2x
|----------------|------------------|----------------|---------------|
|----------------|------------------|----------------|---------------|
GtrII
|-----------10~---------------------------------------------------|
|--8~--8~-----------------8~---8~---------8~--8~-------8~---------|
|--7~---------------------7~--------------7~-----------7~---------|
|-----------------------------------------------------------------|
|-----------------------------------------------------------------|
|-----------------------------------------------------------------|


Bulbol... :)

  19. Me Na Me (2:38)
Intro-
GtrI  GtrII(strum A power chord)
|---------------------------------------------------------------------------|
|---------------------------------------------------------------------------|
|--------------10-1212-14141414141414~--------------10-1212-14141414141414~-|
|-77~----------------------------------77~----------------------------------|
|-77~-7h999999-8--1010-12121212121212~-77~-7h999999-8--1010-12121212121212~-|
|-55~----------------------------------55~----------------------------------|


|-------------------------------------------------------------|
|-------------------------------------------------------------|
|-----------------555----------------------------555----------|
|-----------------555-555------------------------555-555------|2x
|--5/77-5-7-5-xxx-333-555---------5/77-5-7-5-xxx-333-555------|
|--3/55-3-5-3-xxx-----333---------3/55-3-5-3-xxx-----333------|

Verse-
|-------------------------------------------------------------|
|-------------------------------------------------------------|
|----------------------------------------555------------------|
|---7------------------------------------555-555--------------|2x
|---7---------------------5/77-5-7-5-xxx-333-555--------------|
|---5---------------------3/55-3-5-3-xxx-----333--------------|

Refrain
|-------------------------------------------------------------|
|-------------------------------------------------------------|
|-----------------------555---------------------------777-----|
|-----------------------555---------------------------777-----|2x
|-5/77-5/77-5/77-5/77-5-333-----5/77-5/77-5/77-5/77-5-555-----|
|-3/55-3/55-3/55-3/55-3---------3/55-3/55-3/55-3/55-3---------|


Prechorus-
|---------------------------------------------------------------------------|
|---------------------------------------------------------------------------|
|--------------10-1212-14141414141414~--------------10-1212-14141414141414~-|
|-77~----------------------------------77~----------------------------------|
|-77~-7h999999-8--1010-12121212121212~-77~-7h999999-8--1010-12121212121212~-|
|-55~----------------------------------55~----------------------------------|

Chorus-
|-------------------------------------------------------------|
|-------------------------------------------------------------|
|-------------------------------------------------------------|
|-7-55-77-55---7-55-77-55-----7-55-77-55-----7-55-77-55-----7-|
|-7-33-55-55---7-33-55-55-----7-33-55-55-----7-33-55-55-----7-|
|-5-------33---5-------33-----5-------33-----5-------33-----5-|

repeat refrain to chorus-
Interlude-
GtrI  GtrII(strum A power chord)
|---------------------------------------------------------------------------|
|---------------------------------------------------------------------------|
|--------------10-1212-14141414141414~--------------10-1212-14141414141414~-|
|-77~----------------------------------77~----------------------------------|
|-77~-7h999999-8--1010-12121212121212~-77~-7h999999-8--1010-12121212121212~-|
|-55~----------------------------------55~----------------------------------|

GtrI GtrII(strum A power chord)
|--------------------------------------------------------------------------------------------------|
|--------------------------------------------------------------------------------------------------|
|-141414141414141414141415151515151515151515151516161616161717171718181819191919191920202021212121-|
|--------------------------------------------------------------------------------------------------|
|-121212121212121212121213131313131313131313131314141414141515151516161617171717171718181819191919-|
|--------------------------------------------------------------------------------------------------|

Chorus-
|-------------------------------------------------------------|
|-------------------------------------------------------------|
|-------------------------------------------------------------|
|-7-55-77-55---7-55-77-55-----7-55-77-55-----7-55-77-55-------|
|-7-33-55-55---7-33-55-55-----7-33-55-55-----7-33-55-55-------|
|-5-------33---5-------33-----5-------33-----5-------33-------|


|-------------------------------------------------------------vv-|
|----------------------------------------------------------------|
|----------------------------------------------------------------|
|-7-55-77-55---7-55-77-55-----7-55-77-55-----7-55-77-55-7---7777-|
|-7-33-55-55---7-33-55-55-----7-33-55-55-----7-33-55-55-7---7777-|
|-5-------33---5-------33-----5-------33-----5-------33-5---5555-|
  20. Isplakitengtenks (9:29)

Intro-

|--------------------------------------------------------------|
|--------------------------------------------------------------|
|----2-1-----2-1----2h4----------2-1-----2-1-------------------|
|-------------------------------------------------2h4p2--------|
|-22------22------22----------22------22------22---------------|
|-00------00------00----------00------00------00---------------|
  **      **      **          **      **      ** 

|--------------------------------------------------------------|
|-------------------------------------------3-5--2h3p2---------|
|----2-1-----2-1----2h4----------2-1---------------------------|
|--------------------------------------------------------------|
|-22------22------22----------22------22-----------------------|
|-00------00------00----------00------00-----------------------|
  **      **      **          **      **       

            
            
Suggest correction
Creating personal tab
Creating personal tab
You can edit any tab online and save it as your Personal.

You can edit, replace or remove any tab part or add personal notes – all changes will be seen only by you.

Personal tabs can be accessed anytime from any device, even offline.
Learn more »
comments
print report bad tab
5 comments total. Showing first comments.
0 reply
doobidoo 6,272 Jun 06, 2009 11:31 PM

May typing error po ako ..iupdate ko lang...

0 reply
Plankton 22 10 Jun 10, 2009 06:23 AM

Ang galing mo pare! Ang sipag mo din! Congrats and thank you very much!!!

0 reply
negzz07 20 Jun 17, 2009 08:16 PM

ok tsong astig! kaso lang tsong sana ung pagitan ng bawat song malalaki hehe para madaling hanapin hehe \m/

guest
You may want to rate the tab now too:
select rating
Wanna post a correction for this tab? Suggest correction