Oops, an error
Loading. Please wait.

Unang Tikim tab

version 4
version 4

Whole song

3,646 views 3 this week
1 commentread comment
1 2 3 4 5
3 more votes to show rating
add to favorites
×
Save as Personal and add changes to this tab that will be seen only by you. Learn more ›
×
You can save this tab as Personal to edit and correct it or add notes. All changes will be seen only by you. Learn more »
launch autoscroll
font size
0
reset
how to read this tab
guitar tuner
edit
Autoscroll
slow
fast
+/-
esc
set tempo
stop
                                                                             
    Name: Unang Tikim                                                        
    By: Kamikazee                                                            
    Tabbed by: Lenard B. Dichoson                                            
    E-mail: dichoson.lx@gmail.com or dichosonlxp@yahoo.com                   
                                                                             
_____________________________________________________________________________
                                                                             
                        !!!Please rate this TAB..XD !!!                      
    This tab is easy and sounds great on both acoustic or electric guitar    
                                                                             
                              Tuning:  Drop D                                
                                                                             
    Intro (a):  Repeat 2x
   
    e|-------------------------------|-|-----------------------------------------|
    B|-------------------------------|-|-----3---3s5po3------3---3s5~------------|
    G|--5-5-7-5-7s9-7-5~--5-7-5-7s9~-|o|-5-5---5--------5~-5---5-----------------|
    D|-------------------------------|r|-----------------------------------------|
    A|-------------------------------|-|-----------------------------------------|
    E|-------------------------------|-|-----------------------------------------|
   
    Intro (b):
                        Part I                                  Part II
    e|-------------------------------------------------|-------------------------|
    B|-------------------------------------------------|-------------------------| 
    G|-------------------------------------------------|-------------------------|
    D|-5~--3-3-3-3-3--5-5-5-5-5--3-3-3-3-3--5-5-5-5-5--|-5-5xx--3-3xx------------|
    A|-3~--3-3-3-3-3--3-3-3-3-5--3-3-3-3-3--3-3-3-3-3--|-5-5xx--3-3xx------------|
    E|-----3-3-3-3-3-------------3-3-3-3-3-------------|-5-5xx--3-3xx------------|
   
     >>> Picking pattern ( Part I ): down down up down up ... just repeat
                        ( Part II ): down up
   
    Verse: 
    e|------------------------------|r  |----------------------------------------|
    B|------------------------------|e  |----------------------------------------|
    G|------------------------------|p 2|----------------------------------------|
    D|-5-5*-5*-5*-5*--3-3*-3*-3*-3*-|e X|--5-5-5-5-5--3-3-3-3-3------------------|
    A|-3-3*-3*-3*-3*--3-3*-3*-3*-3*-|a  |--3-3-3-3-3--3-3-3-3-3------------------|
    E|----------------3-3*-3*-3*-3*-|t  |-------------3-3-3-3-3------------------|
   
    Refrain:
    e|--------------------------|r  |--------------------------------------------|
    B|--------------------------|e  |--------------------------------------------|
    G|--------------------------|p 2|--------------------------------------------|
    D|-7-7-7--5-5-5--3-3-3-3-3--|e X|---5--3--5~---------------------------------|
    A|-7-7-7--5-5-5--3-3-3-3-3--|a  |---5--3--3~---------------------------------|
    E|-7-7-7--5-5-5--3-3-3-3-3--|t  |---5--3-------------------------------------|
   
    Chorus:
    e|---------------------------------------------------------------------------|
    B|---------------------------------------------------------------------------|
    G|---------------------------------------------------------------------------|
    D|-3-3-3-3-3--7-7--5-5--3-3-3--5-5-5-5-5--3-3-3-3-3--7-7--5-5--3~--5x--------|
    A|-3-3-3-3-3--7-7--5-5--3-3-3--3-3-3-3-3--3-3-3-3-3--7-7--5-5--3~--5x--------|
    E|-3-3-3-3-3--7-7--5-5--3-3-3-------------3-3-3-3-3--7-7--5-5--3~--5x--------|
   
   
    Repeat Intro (a) once , then proceed to Intro (b)...
    Repeat Verse
    Repeat Refrain
    Repeat Chorus
   
   
   
    Adlib:
    e|-----------------------------|r  |-------------------------------------------|
    B|-----------------------------|e  |-------------------------------------------|
    G|-----------------------------|p 4|-------------------------------------------|
    D|-4s5-5---5-5--3-3-3--5po3--0-|e X|--5-5--3-3--5~-----------------------------|
    A|-2s3-3---3-3--3-3-3--5po3--0-|a  |--5-5--3-3--3~-----------------------------|
    E|--------------3-3-3--5po3--0-|t  |--5-5--3-3---------------------------------|
   
    Bridge (?):
    e|--------------------------------------------------------|-------------------|
    B|--------------------------------------------------------|---[repeat until]--|
    G|---0-0-0-0--0-0-0-0--0-0-0-0--0-0-0-0-------------------|---[chorus starts]-|
    D|--------------------------------------------------------|-4s5---------------|
    A|--3-3-3-3-----------3-3-3-3-----------------------------|-2s3---------------|
    E|-----------3-3-3-3-----------5-5-3-3--------------------|-------------------|
   
    Repeat: Chorus: Same ,just full step to higher up the tune
         ***Full step - move chords 2 frets to the right ( For beginners...)
   
    Repeat: Intro (a) & (b) <<< Full step also
   
    End:
    e|-----------------------------------------------------------------------|
    B|-----------------------------------------------------------------------|
    G|-----------------------------------------------------------------------|
    D|--5-5-5x-5-5-5x---5-5x--5-5x---7~--------------------------------------|
    A|--5-5-5x-5-5-5x---5-5x--5-5x---5~--------------------------------------|
    E|--5-5-5x-5-5-5x---5-5x--5-5x--------5s12~------------------------------|
    
    Note:
    ~ - let ring
    S – slide
    Po – pull out
    X – full stop
    * - Palm mute
                    !!!!!!Kung may mali comment n lng...:DD!!!!!!!!!

            
            
Suggest correction
Creating personal tab
Creating personal tab
You can edit any tab online and save it as your Personal.

You can edit, replace or remove any tab part or add personal notes – all changes will be seen only by you.

Personal tabs can be accessed anytime from any device, even offline.
Learn more »
Give kudos to tab author, rate the tab!
1 2 3 4 5
comments
print report bad tab
1 comment total.
0 reply
Manuel_ManzS 10 Dec 04, 2014 05:45 AM

Hmmm. Ok na rin ^_^

guest
You may want to rate the tab now too:
select rating
Wanna post a correction for this tab? Suggest correction