Oops, an error
Loading. Please wait.

Ung Tagalog bass

version 2
version 2

Whole song

Interactive

869 views 1 this week
no commentswrite comment
1 2 3 4 5
3 more votes to show rating
add to favorites
×
Save as Personal and add changes to this tab that will be seen only by you. Learn more ›
×
You can save this tab as Personal to edit and correct it or add notes. All changes will be seen only by you. Learn more »
launch autoscroll
font size
0
reset
guitar tuner
edit
Autoscroll
slow
fast
+/-
esc
set tempo
stop
Author
Difficulty
Ung Tagalog

Artist: Kamikazee
Tabbed by: Adrian Carlo Picar
Cel. No.: 09267544905
Email Add.: picar.adrian@gmail.com
            banzaichibichan_ultimate_0034@yahoo.com


Pinakinggan ko yung kanta tapos kinapa-kapa ko lang yung bass.
Pakinggan niyo na lang yung kanta para masundan niyo ung tab.
Siyempre hindi 100% tama 'yan. Pero, tumutugma naman sa
kanta at masarap tugtugin. :D


Intro 1:

*mabagal na simula*

g------------|
d------------| 
a------------|
E--12\\\\\---|

g---------------------------------------|\
d---------------------------------------| \ 4x
a--7--7--777-7--------5-5--5-5----------| / 
E----------------5-5--------------------|/

g-----|\
d-----| \ end of intro 1
a--7--| /
E-----|/


Intro 2:

g-----------------------------------------|\
d-----------------------------------------| \ 2x
a--7-------4-4----------------------------| / 
E-----7-7-------4-4--5-5--4-4--5-5--7-7---|/


Verse:

Sampung taon na 'kong nanliligaw sa'yo...

g----------------------------------------------------------------------|\
d----------------------------------------------------------------------| \ 2x
a--777-777-777------444-444-444----------------------------------------| / 
E--------------7-7--------------4-4--555-555-555-555--777-777-777-777--|/


Repeat Intro 2

Verse "Akala ko pa n'on may pag-asa sa'yo....."
*same lang sa naunang verse*


Chorus:

Sana'y 'di na umasa pa....

g----------------------------------|\
d----------------------------------| \ 4x
a--777777--------------------------| / 
E----------555555--999999--777777--|/


Instrumental:

g-------------------------------------------------------------|\
d-------------------------------------------------------------| \ 2x
a--77777777--------------44444444--------------------9-7-6-4--| / 
E-----------77-55-44-55------------55555555--777777-----------|/


Bridge:

g-----------------------------|
d-----------------------------| 
a--7-------4------------------|
E------------------5-------7--|

g------9------6----------------|
d----9------6--------7--9-9-9--| 
a--7------4--------7-----------|
E----------------5-------------|

Pakinggan...ang aking sasabihin.......

g------9------6----------------|
d----9------6--------7------9--| 
a--7------4--------7------9----|
E----------------5------7------|

Kung biglaan...ika'y aking iwanan.....
Mamatay ka na...mamatay ka na....

g----------------------------------|\
d----------------------------------| \ 3x
a--777777--444444------------------| /
E------------------555555--777777--|/

*iba-iba yung bilis niyan...pakinggan na lang ang kanta....

g-----------------------------------|
d-----------------------------------|
a--7-------2-4----------------------|
E--------------------4-5-------5-7--|

g----------------------------------------|
d----------------------------------------|
a--7-------2-4---------------------------|
E--------------------4-5-------7-7-7-7---|

*timingan niyo na lang yung bagsak ng nota....


Repeat Chorus

Verse "Tama bang umasa pa at....."
*same lang sa Intro 2; 4x imbis na 2x
sa huling ulit, babagal ung kanta...timing ulit...*


Outro:

g-------------------------------------------------------------|\
d-------------------------------------------------------------| \ 3x
a--77777777--------------44444444--------------------9-7-6-4--| / 
E-----------77-55-44-55------------55555555--777777-----------|/

g---------------------------------------------------------------|
d---------------------------------------------------------------|
a--7-7-7-7-7-7-7-7--4-4-4-4-4-4-4-4-----------------------------|
E------------------------------------5-5-5-5-5-5-5-5--77777777--|

g-----|\
d-----| \ end of song
a--7--| /
E-----|/


Lyrics:

Sampung taon na 'kong nanliligaw sa'yo
at hindi ko na malaman kung ano ang gusto mo.
Nagmukha na 'kong katulong, drayber, at alalay mo.
Sa bawat araw ng linggo, inaraw-araw mo.

Akala ko pa n'on may pag-asa sa'yo dahil sa iyong
sinabi na maghintay lang ako.
Ngunit 'sang araw, nagulat nang naglalakad ako.
May kasama kang iba; nakayakap pa sa'yo.

Sana'y 'di na umasa pa.
Mukha tuloy akong tanga.
Noon pa man ay mahal ka na.
Ngunit sinayang sa wala.

Pakinggan ang aking sasabihin. Ayoko nang ulitin.
Makinig ka na. Kung biglaan ika'y aking iwanan,
sana'y 'di mo makayanan. Mamatay ka na.

Mamatay ka na...mamatay ka na... mamatay ka na...agad.
Mamatay ka na...mamatay ka na... mamatay ka na...
Mamatay ka na agad.

Sana'y 'di na umasa pa.
Mukha tuloy akong tanga.
Noon pa man ay mahal ka na.
Ngunit sinayang sa wala.

Tama bang umasa pa at maghintay pa sa wala?
Tama bang niloko mo, sinayang mo ang oras ko?
Bakit ka ganyan sinta, wala ka bang nadarama?
Bakit ba niloko mo, sinayang oras....ko?

*'Di na masyado maintindihan na lyrics*


Special thanks to:


Fourplay (naging banda ko sa MakSci)

- Harold Lorenzo Malapo (vocals)
- Jan Lloyd Cabebe (lead guitar)
- Serfederic Cellona (rhythm guitar)
- Rochlem Gumangan (manager...daw)

* Bassist ako dito.

Kha'zel (banda ko sa DLSU-CCS kaso medyo bano ung bandmates ko. LOL.)

- Darius Pelonia (vocals..minsan rhythm guitar..)
- Marc Rudolph Jacinto (drums..daw..minsan lead guitar..)
- Thor Alain Gabriel Cada (rhythm guitar..minsan bass)

* All-around ako dito except vocals. Bano kasi sila eh. :D

Sa "guy" na nag-post ng unang bass tab ng Ung Tagalog.
Nakita ko ung mga mali sa bass tab ko.


"If a composer could say what he had to say in words,
he would not bother trying to say it in music."

-Gustav Mahler

            
            
Suggest correction
Creating personal tab
Creating personal tab
You can edit any tab online and save it as your Personal.

You can edit, replace or remove any tab part or add personal notes – all changes will be seen only by you.

Personal tabs can be accessed anytime from any device, even offline.
Learn more »
Give kudos to tab author, rate the tab!
1 2 3 4 5
comments
print report bad tab
guest
You may want to rate the tab now too:
select rating
Wanna post a correction for this tab? Suggest correction