Oops, an error
Loading. Please wait.

Su Falso Mundo tab

77 views 1 this week
no commentswrite comment
1 2 3 4 5
3 more votes to show rating
add to favorites
×
Save as Personal and add changes to this tab that will be seen only by you. Learn more ›
×
You can save this tab as Personal to edit and correct it or add notes. All changes will be seen only by you. Learn more »
launch autoscroll
font size
0
reset
how to read this tab
guitar tuner
edit
Autoscroll
slow
fast
+/-
esc
set tempo
stop
===========================
= KAOS ETILIKO ============
= Disco: No hay agua ======
= Tema: SU FALSO MUNDO ====
===========================
Instrumento: Guitarra
Tabulado por: Toki (toki@


Esta cojonuda canción es muy fácil de tocar. Sólo son 3 acordes
que se tocan en quintas. El punteillo también está mamao.
La canción comienza sólo con el bajo (los dos primeros párrafos)
y en el tercero entra la guitarra, igual durante toda la canción.


========================================
Todo este mundo es falso y embustero,
ya me lo dijo mi buen amigo Pedro.
He visto violar sin más preocupaciones,
así que ahora tú no me toques los cojones.

También he visto matar a tu amigo,
por muy poco dinero acribillarlo a tiros.
¿Quién pagará otra víctima inocente?
Sal a la calle, pregúntale a la gente.

E5                 D5        E5
También he visto matar a tu amigo,
    E5              D5             E5
por muy poco dinero acribillarlo a tiros.
E5         C5      D5         E5
¿Quién pagará otra víctima inocente?
E5                 D5           E5
Sal a la calle, pregúntale a la gente.

No, no, no. No me importa lo que dicen.
Ya lo demuestra, nuestra indiferencia.
SI voy A LA cárcel, sólo por lo que digo,
que esta puta justicia, sea pa todos la misma.

(punteo A)

Ahora me explico, por qué existe pobreza:
algunos sinvergüenzas, se enriquecen con ella.
Mientra otros mueren de hambre y miseria,
el mismo sivergüenza, con un chalet en Marbella.

Aquí el que manda, es el puto dinero:
todos como bobos, cuanto más tengo más quiero.
No quieren darse cuenta, que yo no entro en su juego,
de todo este mundo, tan falso y embustero.

No, no, no. No me importa lo que dicen.
Ya lo demuestra, nuestra indiferencia.
SI voy A LA cárcel, sólo por lo que digo,
que esta puta justicia, sea pa todos la misma.

(punteo A)

Todo este mundo es falso y embustero,
ya me lo dijo mi buen amigo Pedro.
He visto violar sin más preocupaciones,
así que ahora tú no me toques los cojones.

También he visto matar a tu amigo,
por muy poco dinero acribillarlo a tiros.
¿Quién pagará otra víctima inocente?
Sal a la calle, pregúntale a la gente.

No, no, no. No me importa lo que dicen.
Ya lo demuestra, nuestra indiferencia.
SI voy A LA cárcel, sólo por lo que digo,
que esta puta justicia, sea pa todos la misma.

(punteo A) mientras se canta: No, no, no..'

(punteo A+B)
============================================


 (punteo A)
E------7--7-----------------------------------7------7--7--7--
B------------10--8--10--10--8--7--8--7-----------10-----------
G---9-----------------------------------9--9------------------
D-------------------------------------------------------------
A-------------------------------------------------------------
E-------------------------------------------------------------

                     (punteo B)
--------------------|----12--10--12--12-12--10--12--10--8---------
-10-10/-10--8-------|--------------------------------------12-----
---------------9--9-|-9----------------------------------------9--
--------------------|---------------------------------------------
--------------------|---------------------------------------------
--------------------|---------------------------------------------


-----7------7--7--7-------------------------||
--------10-----------10--10/--10--8---------||
--9----------------------------------9--9---||
--------------------------------------------||
--------------------------------------------||
--------------------------------------------||

Acordes:
 E5  D5  C5
-------------
-------------
--9---7---5--
--9---7---5--
--7---5---3--
-------------


Ala, a kaskala. Eespero que disfruteis la canción.
Gracias a Marcelo.
Dudas, comentarios o cualquier movida a Toki (toki@

            
            
Suggest correction
Creating personal tab
Creating personal tab
You can edit any tab online and save it as your Personal.

You can edit, replace or remove any tab part or add personal notes – all changes will be seen only by you.

Personal tabs can be accessed anytime from any device, even offline.
Learn more »
Give kudos to tab author, rate the tab!
1 2 3 4 5
comments
print report bad tab
guest
Wanna post a correction for this tab? Suggest correction