Oops, an error
Loading. Please wait.

Inadaptados tab

40 views 1 this week
no commentswrite comment
1 2 3 4 5
3 more votes to show rating
add to favorites
×
Save as Personal and add changes to this tab that will be seen only by you. Learn more ›
×
You can save this tab as Personal to edit and correct it or add notes. All changes will be seen only by you. Learn more »
launch autoscroll
font size
0
reset
how to read this tab
guitar tuner
edit
Autoscroll
slow
fast
+/-
esc
set tempo
stop
Intro

    A - C - G - A

    e|--------------------------------------------------------------|
    B|--------------------------------------------------------------|
    G|--------7-9-7--------------------------7-9-7------9-7---------|
    D|-7-9-10-------10-9-10-9-7-5-7~--7-9-10-------10-9----10-9-10~-| X2
    A|--------------------------------------------------------------|
    E|--------------------------------------------------------------|


Estrofa: A - C - G - A

    Vais a volver a sakear humillar y torturar
    Vais a volver a condenar nuestra forma de actuar
    Como nos vamos a adaptar a un sistema ke apesta
    Vais a volver a demostrar el asco ke nos dais


Coro: D* - E#* - C - G

    D*                       E#*

    G|-----|              G|-10--|
    D|-12--|              D|-10--|
    A|-12--|              A|-8---|
    E|-10--|              E|-----|

    Para siempre inadaptados...
    Inadaptado hasta el final...

Intermedio: A - C - G - A  X4


Estrofa: A - C - G - A

    Y caminar, continuar sin mirar nunca hacia atras
    Pisotear sus ideas odiar a quien nos quiera odiar
    Pienso volver a demostrar repulsa hacia la humillacion
    Pienso volver a demostrar el asco que nos dais

Coro: D* - E#* - C - G

    Para siempre inadaptados...
    Inadaptado hasta el final...

Punteo 1:

e|------------------------------------|
B|---------------------------5-4------|
G|-2--4-5--4-5-4-2----2--4-5-----5-4--| X2
D|------------------------------------|
A|------------------------------------|

Punteo 2:

e|------------------------------------------------------------|
B|-----5---5-5-5--3-3-3-1-0-1-0----------5---5~5-3~3-1-0------|
G|-2-2---2---------------------2~----2-2---2-------------2----|
D|------------------------------------------------------------| X2
A|------------------------------------------------------------|
E|------------------------------------------------------------|


Punteo 3:

    D* - E#* - C - G

e|-1^-0-----|
B|------1^--| x4
G|----------|

Coro: D* - E#* - C - G

    Para siempre inadaptados...
    Inadaptado hasta el finaaaallll...

Punteo 4:

G|---------------------------|
D|---------------------------|
A|-----7--5--3~-5--3--5--7~--|
E|--5------------------------|

FINAL: A - C - G - C - - A - C - G - - (G-A-C-A) X2

+ ^ significa tocar varias veces, ahi uds le daran el tiempo,
escuchen la cancion
+ En los punteos 1 y 2, no sake los acordes, pero con la base
de toda la cancion se escucha bien

Pues ahi esta banda, cualkier duda, aclaracion, comentario,
mentada y demas, es aceptada con placer...

Amor y rabia.

Armaz

            
            
Suggest correction
Creating personal tab
Creating personal tab
You can edit any tab online and save it as your Personal.

You can edit, replace or remove any tab part or add personal notes – all changes will be seen only by you.

Personal tabs can be accessed anytime from any device, even offline.
Learn more »
Give kudos to tab author, rate the tab!
1 2 3 4 5
comments
print report bad tab
guest
Wanna post a correction for this tab? Suggest correction