Oops, an error
Loading. Please wait.

Podrido tab

21 views 1 this week
no commentswrite comment
1 2 3 4 5
3 more votes to show rating
add to favorites
×
Save as Personal and add changes to this tab that will be seen only by you. Learn more ›
×
You can save this tab as Personal to edit and correct it or add notes. All changes will be seen only by you. Learn more »
launch autoscroll
font size
0
reset
how to read this tab
guitar tuner
edit
Autoscroll
slow
fast
+/-
esc
set tempo
stop
empiesa el bajo con esto
lo hace en toda la cancion
1/-------------------------------------------------------
2/-------------------------------------------------------
3/-------------------------------------------------------
4/5-5-5-5-5-5--7-7-7-7-7-7-7--8-8-8-8-8-8-8--4-4-4-4-6-5-

la guitarra da golpes secos en toda la cancion
A)7------------9--------------10-------------6--------8-7-
E)5------------7--------------8--------------4--------6-5-

punteo
D)7--------9---10-9--7---9---10--9--7--6-8-7--

A)7---------------9-------------
E)5---------------7--------------
podrido estoy al respirar de este humo
A)-10-------------6--------8-7-
E)-8--------------4--------6-5-
podrido me revuelco por la vida
A)7---------------9-------------
E)5---------------7--------------
paseo mi miseria por la ciudad
A)-10-------------6--------8-7-
E)-8--------------4--------6-5-
odio la gente que me vigila

D)7--9-10-9-7-9-10-9-7-6-8-7--

A)7---------------9-------------
E)5---------------7--------------
siempre reniego del futuro
A)-10-------------6--------8-7-
E)-8--------------4--------6-5-
casi todos los dias pierdo el control
A)7---------------9-------------
E)5---------------7--------------
busco la bebida en los bolsillos
A)-10-------------6--------8-7-
E)-8--------------4--------6-5-
una cerveza y todo olvidado

D)7--9-10-9-7-9-10-9-7-6-8-7--

A)7---------------9-------------
E)5---------------7--------------
la demente me ha llegado
A)-10-------------6--------8-7-
E)-8--------------4--------6-5-
me importa una polla lo material

D)7--9-10-9-7-9-10-9-7-6-8-7--

A)7---------------9-------------
E)5---------------7--------------
soy feliz estando podrido
A)-10-------------6--------8-7-
E)-8--------------4--------6-5-
es lo unico que nunca me quitaran

D)7--9-10-9-7-9-10-9-7-6-8-7--

A)7---------------9-------------
E)5---------------7--------------
por cada coalición, el ultimo cigarro
A)-10-------------6--------8-7-
E)-8--------------4--------6-5-
vomito en la calle una cerveza
A)7---------------9-------------
E)5---------------7--------------
me dan alergia las sirenas
A)-10-------------6--------8-7-
E)-8--------------4--------6-5-
me da muxo asco la bandera

D)7--9-10-9-7-9-10-9-7-6-8-7--

D)7--9--10----7--9--10---
 ¡Poodridoo! ¡Poodridoo!
D)7--9--10----7--9--10---
 ¡Poodridoo! ¡Poodridoo!
D)7--9--10-----9-7-6-7--
 ¡Poodridoo! ¡Poodridoo!
D)7--9--10----7--9--10---
 ¡Poodridoo! ¡Poodridoo!
D)7--9--10----9-7-6-7~~~~~~~~
 ¡Poodridoo! ¡Poodridoo!

para compartir otras tablaturas o partituras::
liveracion_animal@

            
            
Suggest correction
Creating personal tab
Creating personal tab
You can edit any tab online and save it as your Personal.

You can edit, replace or remove any tab part or add personal notes – all changes will be seen only by you.

Personal tabs can be accessed anytime from any device, even offline.
Learn more »
Give kudos to tab author, rate the tab!
1 2 3 4 5
comments
print report bad tab
guest
Wanna post a correction for this tab? Suggest correction