Oops, an error
Loading. Please wait.

Me Mata bass

by Kapanga
64 views 1 this week
no commentswrite comment
1 2 3 4 5
3 more votes to show rating
add to favorites
×
Save as Personal and add changes to this tab that will be seen only by you. Learn more ›
×
You can save this tab as Personal to edit and correct it or add notes. All changes will be seen only by you. Learn more »
launch autoscroll
font size
0
reset
guitar tuner
edit
Autoscroll
slow
fast
+/-
esc
set tempo
stop
Intro:
 G------------------
 D--------5---------  X 2
 A------7-----------
 E----8-------------

  G------------------------------
  D------------------------------ X 2
  A-----4-------4------5----7----
  E---5------2-------5----7------


  G-----------------------------------------------
  D-----------------------------------------------
  A-----4-----4---5-----7---------------7-7-7-7-7-
  E---5-----2-------5-----7---5-5-5-5-5-----------

   Me traes de la cabeza...
   G--------------------------------------
   D--------------------------------------  X 2
   A-----4---4----4---4--5---5----7---7---
   E---5---5----2---2------5---5----7---7-


   Me tienes, me tienes atrapado...

   G----------------------------------
   D----------------------------------
   A---5-----5-----7-----7------------
   E-----5-----5-----7-----7----------

   G---------------------------------------
   D---------------------------------------
   A-----5-----5-----7-----7---7-7-7-7-7-7-
   E---5-----5-----7-----7-----------------


   Me mata, me mata, me mata tu mirada...

   G--------------------------------------
   D--------------------------------------  X4
   A-----4---4----4---4--5---5----7---7---
   E---5---5----2---2------5---5----7---7-


   G------------------------------------------  x 3
   D------------------------------------------
   A------------------------------------------
   E----4?5-5-5---4?5-5-5---4?5-5-5-----------

Repite la intro pero 3 veces.

  G------------------------------
  D------------------------------ X 2
  A-----4-------4------5----7----
  E---5------2-------5----7------


Repite toda la progresión de las estrofas
Anteriores.

En la parte instrumental repite la introducción.

  G------------------------------
  D------------------------------ X 8
  A-----4-------4------5----7----
  E---5------2-------5----7------

  G---------------------------------------
  D---------------------------------------
  A-----5-----5-----7-----7---7-7-7-7-7-7-
  E---5-----5-----7-----7-----------------

En el final repite el estribillo.

Este es mi primer tab y creo que esta bastante bien
Si encuetran algún error avisen
Buena vida y aguante el rock

            
            
Suggest correction
Creating personal tab
Creating personal tab
You can edit any tab online and save it as your Personal.

You can edit, replace or remove any tab part or add personal notes – all changes will be seen only by you.

Personal tabs can be accessed anytime from any device, even offline.
Learn more »
Give kudos to tab author, rate the tab!
1 2 3 4 5
comments
print report bad tab
guest
Wanna post a correction for this tab? Suggest correction