Oops, an error
Loading. Please wait.

Mujeres tab

by Kapanga
44 views 1 this week
no commentswrite comment
1 2 3 4 5
3 more votes to show rating
add to favorites
×
Save as Personal and add changes to this tab that will be seen only by you. Learn more ›
×
You can save this tab as Personal to edit and correct it or add notes. All changes will be seen only by you. Learn more »
launch autoscroll
font size
0
reset
how to read this tab
guitar tuner
edit
Autoscroll
slow
fast
+/-
esc
set tempo
stop
**********************************************************************
Nota: La transcripción que ya estaba carecía de los punteos y arreglos
del tema, por lo que me mandé a sacarlos como pude, creo que están
dentro de todo muy correctos. Para sacarlos bien escuchen atentos el
tema, lo que es ligados continuos son bien rápido.
Los acordes en el verso son en modo ska.
**********************************************************************

INTRO
e|---------------------------------|
B|---------------------------------|
G|---------------------------------|
D|---------------------------------|
A|--8--7--5---5-5-8-8-8-8-7-7-7-5--|
E|---------------------------------|

e|--x-7-5--------------------------|------7-5--------------------------|
B|--------8-7h8p7h8p7h8p7-5---5-7--|--0-7-----8-7h8p7h8p7h8p7-5--------|
G|--------------------------7------|----------------------------7-6-4--|
D|---------------------------------|-----------------------------------|
A|---------------------------------|-----------------------------------|
E|---------------------------------|-----------------------------------|

e|------7-5--------------------------|------7-5-----------------|
B|--0-7-----8-7h8p7h8p7h8p7-5---5-7--|--0-7-----8-7--5----------|
G|----------------------------7------|-----------------7-6-40--|
D|-----------------------------------|--------------------------|
A|-----------------------------------|--------------------------|
E|-----------------------------------|--------------------------|

A                            D
Todas las mujeres que quisiste,
F#                          Bm
Están drogadas, están drogadas.
A                            D
Todas las mujeres que quisiste,
F#                           Bm
Están drogadas, tan estropeadas.

Por eso dice:
A                D
Oh, oh, oh, oh, oh,
F#                      Bm
Oh, oh, oh, oh, oh, oh, oh.
A                D
Oh, oh, oh, oh, oh,
F#                      Bm
Oh, oh, oh, oh, oh, oh, oh.

CORTE
e|------7-5--------------------------|------7-5--------------------------|
B|--0-7-----8-7h8p7h8p7h8p7-5---5-7--|--0-7-----8-7h8p7h8p7h8p7-5--------|
G|----------------------------7------|----------------------------7-6-4--|
D|-----------------------------------|-----------------------------------|
A|-----------------------------------|-----------------------------------|
E|-----------------------------------|-----------------------------------|

e|------7-5--------------------------|----7-5-7-9--10-9-7-5--------------|
B|--0-7-----8-7h8p7h8p7h8p7-5---5-7--|--7-------------------8-7-5--------|
G|----------------------------7------|----------------------------7-60--|
D|-----------------------------------|-----------------------------------|
A|-----------------------------------|-----------------------------------|
E|-----------------------------------|-----------------------------------|

A                       D
Dijo tu madre, no te metás,
F#                            Bm
Con esa mina no sabés adonde vas.
A                          D
No te cocina, se va al burdel,
F#                                 Bm
Toda la guita se la gasta en un papel.

A                            D
Todas las mujeres que quisiste,
F#                          Bm
Están drogadas, están drogadas.
A                            D
Todas las mujeres que quisiste,
F#                           Bm
Están drogadas, tan estropeadas.

Por eso dice:
A                D
Oh, oh, oh, oh, oh,
F#                      Bm
Oh, oh, oh, oh, oh, oh, oh.
A                D
Oh, oh, oh, oh, oh,
F#                      Bm
Oh, oh, oh, oh, oh, oh, oh.

SOLO TECLADO

A                            D
Todas las mujeres que quisiste,
F#                          Bm
Están drogadas, están drogadas.
A                            D
Todas las mujeres que quisiste,
F#                           Bm
Están drogadas, tan estropeadas.

A                           D
Tenés diez perros y un jabalí,
F#                             Bm
Tenés perfume pero no tenés nariz.
A                        D
Tenés el monte, tenés papel,
F#                              Bm
Tenés la mesa pero no tenés mantel.

Por eso dice:
A                D
Oh, oh, oh, oh, oh,
F#                      Bm
Oh, oh, oh, oh, oh, oh, oh.
Por eso dice:
A                D
Oh, oh, oh, oh, oh,
F#                      Bm
Oh, oh, oh, oh, oh, oh, oh.

OUTRO
Base: (A | D | F# | Bm) (x2) (A | D | F# | Bm) (x2)
       A-Bm | A-Bm | A-Bm-Bm-A#

            
            
Suggest correction
Creating personal tab
Creating personal tab
You can edit any tab online and save it as your Personal.

You can edit, replace or remove any tab part or add personal notes – all changes will be seen only by you.

Personal tabs can be accessed anytime from any device, even offline.
Learn more »
Give kudos to tab author, rate the tab!
1 2 3 4 5
comments
print report bad tab
guest
Wanna post a correction for this tab? Suggest correction