Oops, an error
Loading. Please wait.

Murmullo tab

by Kapanga
54 views 1 this week
no commentswrite comment
1 2 3 4 5
3 more votes to show rating
add to favorites
×
Save as Personal and add changes to this tab that will be seen only by you. Learn more ›
×
You can save this tab as Personal to edit and correct it or add notes. All changes will be seen only by you. Learn more »
launch autoscroll
font size
0
reset
how to read this tab
guitar tuner
edit
Autoscroll
slow
fast
+/-
esc
set tempo
stop
INTRO
e|---------------2--|------------------3--|
B|--------------3---|-----------------3---|
G|-------------4----|----------------0----|
D|------------4-----|---------------0-----|
A|--2-5-4-2--2------|--2-4h5-4-2---2------|
E|------------------|-------------3-------|

e|-2-x-222-x-222-x-333-|-2-x-222-x-222-x-333-|-2-x-222-x-222-x-333-|
B|-3-x-333-x-333-x-333-|-3-x-333-x-333-x-333-|-3-x-333-x-333-x-333-|
G|-4-x-444-x-444-x-000-|-4-x-444-x-444-x-000-|-4-x-444-x-444-x-000-|
D|-4-x-444-x-444-x-000-|-4-x-444-x-444-x-000-|-4-x-444-x-444-x-000-|
A|-2-x-222-x-222-x-222-|-2-x-222-x-222-x-222-|-2-x-222-x-222-x-222-|
E|---------------x-333-|---------------x-333-|---------------x-333-|
                          RIFF
e|-2---------------------|---------------------------------|
B|-3---------------------|--------------(x3)---------------|
G|-4--SLIDE-DESCENDENTE--|---------------------------------|
D|-4---------------------|---------------------------------|
A|-2---------------------|--1h2-2-2-1h2-2-2-1h2-2-2--------|
E|-----------------------|--------------------------0-3-2--|

D
Me sentía poseído, no sabía adonde ir.
B               A           G                D
Estaba como perdido, y aburrido, de estar aquí.

D5                   G5 D5             G5      D5
Colectivos derretidos, veo caras donde no las hay.
B5                  A5             G5/A5/B5/C5/D5/E5/F5/G5
Y un murmullo sostenido, que me incita a no pensar.

D                          A
Si amanece y hay un muro, tengo que pasar.
G                     A
Camino para adelante, y voy para atrás.
            D                    B
(Y es que) Hay interferencias, siento otra frecuencia.
  A                   G5
Y esa melodía que no dejo de escuchar.

e|---------------------------------|
B|--------------(x4)---------------|
G|---------------------------------|
D|---------------------------------|
A|--1h2-2-2-1h2-2-2-1h2-2-2--------|
E|--------------------------0-3-2--|

D
Si me duermo estoy perdido, algo tengo que encontrar.
B                   A          G                  D
Para guardar mis oídos, y ese murmullo, poder callar.

D5                   G5 D5                 G5       D5
El domina mis sentidos, en silencio no puedo estar más.
B5                 A5              G5/A5/B5/C5/D5/E5/F5/G5
Este ruido es una droga, que me invita a no pensar.

D                          A
Si amanece y hay un muro, tengo que pasar.
G                     A
Camino para adelante, y voy para atrás.
            D                    B
(Y es que) Hay interferencias, siento otra frecuencia.
  A                   G5
Y esa melodía que no dejo de escuchar.

D                          A
Si amanece y hay un muro, tengo que pasar.
G                     A
Camino para adelante, y voy para atrás.
            D                    B
(Y es que) Hay interferencias, siento otra frecuencia.
  A                   G5
Y esa melodía que no dejo de escuchar.

OUTRO
e|---------------------------------|---------------------------------|
B|--------------(x4)---------------|--------------(x4)---------------|
G|---------------------------------|---------------------------------|
D|---------------------------------|---------------------------------|
A|--1h2-2-2-1h2-2-2-1h2-2-2--------|--3h4-4-4-3h4-4-4-3h4-4-4--------|
E|--------------------------0-3-2--|--------------------------2-5-4--|

e|--------------2--|
B|-------------3---|
G|------------4----|
D|-----------4-----|
A|--2-5-4-2-2------|
E|-----------------|

            
            
Suggest correction
Creating personal tab
Creating personal tab
You can edit any tab online and save it as your Personal.

You can edit, replace or remove any tab part or add personal notes – all changes will be seen only by you.

Personal tabs can be accessed anytime from any device, even offline.
Learn more »
Give kudos to tab author, rate the tab!
1 2 3 4 5
comments
print report bad tab
guest
Wanna post a correction for this tab? Suggest correction