Oops, an error
Loading. Please wait.

Historia De Amor tab

by K'aphia
152 views 1 this week
no commentswrite comment
1 2 3 4 5
3 more votes to show rating
add to favorites
×
Save as Personal and add changes to this tab that will be seen only by you. Learn more ›
×
You can save this tab as Personal to edit and correct it or add notes. All changes will be seen only by you. Learn more »
launch autoscroll
font size
0
reset
how to read this tab
guitar tuner
edit
Autoscroll
slow
fast
+/-
esc
set tempo
stop
AQUI LE TRAIGO UN TOBITAS DEL GRUPO KAPHIA

1||-0-2-2-3-3-5-5-7-7-8-8-10-10-12||-0-2-0-2-0---------------||
2||-------------------------------||-----------3-0-----------||
3||-------------------------------||---------------2-0---0---||
4||-------------------------------||-------------------4---2-||
5||-------------------------------||-------------------------||
6||-------------------------------||-------------------------||

zampoña(Em- Dm Bm -Em)bis -(G -D -Bm -Em)

1||------------------------------------||
2||------------------------------------||
3||------0-2-0-2-0---------0-2-0-2-0---||
4||-2-2-4----------4-2-2-4-----------2-||
5||------------------------------------||
6||------------------------------------||

Em                G               Bm              D
Quiero contar una historia de un amor que ayer nacio
       Em             D          Bm        D
cuando dos hermosos ojos se pozaron sobre mi
          G        D              Bm               Em
y el embrujo de una tarde nos hizo soñar con el amor
    G          D         Bm                 Em
asi yo la conoci bailando los tobas la encontre.

1||--------------------------------------------||
2||--------------------------------------------||
3||------0-2-0-2-0---------0-2-0-2-0-----------||
4||-2-2-4----------4-2-2-4-----------2-0-2-----||
5||----------------------------------------2---||
6||------------------------------------------0-||

Em                 G         Bm          D
El encanto de sus ojos me lleno el corazon
        Em         G            Bm         D
de alegrias y emociones que nunca pude sentir
      G            D                Bm         Em
el amor toco a mi puerta como yo jamas lo imagine
         G           D           Bm           Em
fue que asi me enamore bailando los tobas la bese

Em          D       Bm        Em            D           Bm         Em
bailando los tobas: yo la conoci, Bailando los tobas: fue que la bese,
          D         Bm         Em
bailando los tobas yo me enamore...

Quena (Em -G -Bm -D)bis  -(Em - D -Em -D -Em)

Em               G            Bm            D
Asi pasaron los dias con su amor volvi a vivir
        Em         G             Bm         D
despertaron iluciones que en mi vida yo perdi
          G          D                  Bm             Em
hoy ya tengo quien me quiera los anelos se hacen realidad
      G              D                Bm              Em
su calor me hizo feliz gracias al encuentro de este amor.

1||------------------------------------||
2||------------------------------------||
3||------0-2-0-2-0---------0-2-0-2-0---||
4||-2-2-4----------4-2-2-4-----------2-||
5||------------------------------------||
6||------------------------------------||

Em                  G           Bm         D
Luego un dia nos lleno de alegria el corazon
         Em          G            Bm            D
en el fruto de este amor que llenava nuestro hogar
        G           D               Bm        Em
fue la luz que ilumino cada nuevo dia por vivir
      G             D             Bm               Em
la vida tiene sentido cuando tienes alguien para amar

Em          D       Bm        Em            D           Bm         Em
bailando los tobas: yo la conoci, Bailando los tobas: fue que la bese,
          D         Bm        Em            D           Bm          Em
bailando los tobas yo me enamore, Bailando los tobas: yo aprendi a querer..

Quena (Em -G -Bm -D) _ (Em -Em -D -Em)

            
            
Suggest correction
Creating personal tab
Creating personal tab
You can edit any tab online and save it as your Personal.

You can edit, replace or remove any tab part or add personal notes – all changes will be seen only by you.

Personal tabs can be accessed anytime from any device, even offline.
Learn more »
Give kudos to tab author, rate the tab!
1 2 3 4 5
comments
print report bad tab
guest
Wanna post a correction for this tab? Suggest correction