Oops, an error
Loading. Please wait.

Vas A Volver chords

20 views 1 this week
no commentswrite comment
1 2 3 4 5
3 more votes to show rating
add to favorites
×
Save as Personal and add changes to this tab that will be seen only by you. Learn more ›
×
You can save this tab as Personal to edit and correct it or add notes. All changes will be seen only by you. Learn more »
launch autoscroll
font size
0
reset
transpose
0
reset
display chords
guitar tuner
edit
Autoscroll
slow
fast
+/-
esc
set tempo
stop
Strumming
There is no strumming pattern for this song yet. and get +5 IQ
URL: 


INTRO: (A G) x4 / A G# F# E LA E LA 

|--------------------------------------------------------- 
|--------------------------------------------------------- 
|--------------------------------------------------------- 
|---------------------------------------------2----------- 
|-------------3-2--33-2--2-3---3-2-0--0-2-3-20------------ 
|-5-4-2-0-000----0-----------0---------------------------- 
  
       A                          E 
Este amor que tanto quise ha terminado; 

           D                            A 
pero el olvido, compadre, no me llega jamás! 

        D                                           A 
He decidido no hacerte daño, he decidido no tener rencor, 

          E                                        A 
pero esperar hasta que el mundo se acabe será lo mejor. 

         D                               A 
Cuando mañana no sea ni cadáver, en un altar allí estaré 
  
 E                                      A 
convertido en rosas tan rojas para tu volver! 
  
 E                         A 
Es que vas a volver, es que vas a volver, 
  
 E                                           A 
cuando el mundo se acabe y solo haya almas yo sé vas a volver. 
  
 E                         A 
Es que vas a volver, es que vas a volver, 
  
 E 
cuando el mundo se acabe y solo haya almas 

   A       G     A G LA SOL       LA 
yo sé vas a volver,        sé vas a volver. 

|--------------------------------------------------------- 
|--------------------------------------------------------- 
|--------------------------------------------------------- 
|--------------------------------------------------------- 
|-------------3-2--33-2--2-3---3-2-0-023------------------ 
|-5-4-2-0-000----0-----------0----------024--------------- 
(Hay que te quiero mucho mucho) 
  
 E                         A 
A este mundo, compadre, hay que hacerle la guerra! 
  
 D                         A 
Esta podrido y no nos deja crecer... 

        D                                           A 
He decidido no hacerle daño, he decidido no tener rencor, 

          E                                        A 
pero esperar hasta que el mundo se acabe será lo mejor. 

         D                               A 
Cuando mañana no sea ni cadáver, en un altar allí estaré 

 E                                      A 
convertido en rosas tan rojas para tu volver! 
  
 E                         A 
Es que vas a volver, es que vas a volver, 
  
 E                                           A 
cuando el mundo se acabe y solo haya almas yo sé vas a volver. 
  
 E                         A 
Es que vas a volver, es que vas a volver, 
  
 E 
cuando el mundo se acabe y solo haya almas 

   A       G     A G LA SOL       LA 
yo sé vas a volver,        sé vas a volver. 

|---------------------------------------------------------- 
|---------------------------------------------------------- 
|---------------------------------------------------------- 
|---------------------------------------------------------- 
|-------------7---7---7-------32--------99542--------(10)--
|-4-4457-75445-445-445--542420----4-4457------(10x5)9----0- 
  
   A 
Uoh! No No No No No No! 

 E                         A 
Es que vas a volver, es que vas a volver, 
  
 E                                           A 
cuando el mundo se acabe y solo haya almas yo sé vas a volver. 
  
 E                         A 
Es que vas a volver, es que vas a volver, 
  
 E 
cuando el mundo se acabe y solo haya almas 

   A       G     A G LA SOL       LA 
yo sé vas a volver,        sé vas a volver. 

|---------------------------------------------------------- 
|---------------------------------------------------------- 
|---------------------------------------------------------- 
|---------------------------2------------------------------ 
|--------32-332-23-320-02320----------32-332-23-320-023---- 
|5420-000--0------0-----------5420-000--0------0-------024- 
(Te puedo extrañar mucho más) 

(A G) x4

            
            
Suggest correction
Creating personal tab
Creating personal tab
You can edit any tab online and save it as your Personal.

You can edit, replace or remove any tab part or add personal notes – all changes will be seen only by you.

Personal tabs can be accessed anytime from any device, even offline.
Learn more »
Give kudos to tab author, rate the tab!
1 2 3 4 5
comments
print report bad tab
guest
Wanna post a correction for this tab? Suggest correction