Oops, an error
Loading. Please wait.

Take What You Want solo tab

1,092 views 3 this week
8 commentsread comments
1 2 3 4 5
x 3
add to favorites
×
Save as Personal and add changes to this tab that will be seen only by you. Learn more ›
×
You can save this tab as Personal to edit and correct it or add notes. All changes will be seen only by you. Learn more »
launch autoscroll
font size
0
reset
how to read this tab
guitar tuner
edit
Autoscroll
slow
fast
+/-
esc
set tempo
stop
Author
Unregistered
First tablature ever. Please take it easy on the comments.

I heard this song off of Maroon 5's "Songs About Jane: 10th Anniversary Edition". I
loved the intro/solo so much. I wanted to figure it out, but then I couldn't find any tabs
for it. Just the arpeggios that play during the verses. So I was forced to make one of 
my own from ear. I checked the song repeatedly. Here's what I came up with. lml

-------------------------------------------------------------------------------
                             TAKE WHAT YOU WANT - Kara's Flowers
-------------------------------------------------------------------------------
Tabbed by: daniel_UG.com
E-mail: dycurlee@gmail.com

http://open.spotify.com/album/5zClcGCSWj926AMjvBNSLc

Tuning: Standard Tuning (EADGBe)

|------------------------------------------------------------------------------|
|-------7---7-7-7---7-7-7-----------------------------------+7-----------------|
|-------7---7h9-7---7h9-7-7---7----------7-7-7--7-6h7h6------------------------|
|-xx-/9---9-------9-------7h9-7-------9-----------------8----------------------|
|-------------------------------9-8-7----------------------9-------------------|
|------------------------------------------------------------------------------|

|-b5br------5---------------------------------------------------------------|
|------5-b5---b5-3-5-3------------------3p2p0-------------------------------|
|-----------------------4-2/4-2-----2-4-------------------------------------|
|--------------------------------2/4------------2/4-------------------------|
|---------------------------------------------------------------------------|
|---------------------------------------------------------------------------|

************************************

| /   slide up
| \   slide down
| h   hammer-on
| p   pull-off
| ~   vibrato
| +   harmonic
| x   Mute note
| b   Bend
| pb  Pre-bend
| br  Bend release
| pbr Pre-bend release
| brb Bend release bend

************************************

            
            
Suggest correction
Creating personal tab
Creating personal tab
You can edit any tab online and save it as your Personal.

You can edit, replace or remove any tab part or add personal notes – all changes will be seen only by you.

Personal tabs can be accessed anytime from any device, even offline.
Learn more »
Give kudos to tab author, rate the tab!
1 2 3 4 5
comments
print report bad tab
8 comments total. Showing first comments.
0 reply
daniel_UG.com 12 May 05, 2013 04:08 PM, edited on September 17 2016, 10:44 pm

I actually got some views? Let the poor ratings begin...

0 reply
daniel_UG.com 12 May 05, 2013 04:08 PM

FUUUUUUUUUUUUUUUUUUUUUUUUUUUUU...

+1 reply
maxchern 10 Jul 09, 2014 04:10 PM, edited at 08:17 pm

|------------------------------------------------------------------------------|
|-------7---7-7-7---7-7-7-----------------------------------+7-----------------|
|-------7---7h9-7---7h9-7-7---7----------7-7-7--7-6h7h6------------------------|
|-xx-/9---9-------9-------7h9-7-------9-----------------8----------------------|
|---------------------------------8-7-----7-7--------------9-------------------|
|------------------------------------------------------------------------------|

|-5h7-5----------5---------------------------------------------------------------|
|----------7--b5---b5brp3-5-3------------------3p2-------------------------------|
|-------7---------------------4-2h4-2-----2-4------2-----------------------------|
|-------------------------------------2/4-------------2h4------------------------|
|--------------------------------------------------------------------------------|
|--------------------------------------------------------------------------------|

guest
Wanna post a correction for this tab? Suggest correction