Oops, an error
Loading. Please wait.

Tu Imagen De Mujer tab

38 views 1 this week
no commentswrite comment
1 2 3 4 5
3 more votes to show rating
add to favorites
×
Save as Personal and add changes to this tab that will be seen only by you. Learn more ›
×
You can save this tab as Personal to edit and correct it or add notes. All changes will be seen only by you. Learn more »
launch autoscroll
font size
0
reset
how to read this tab
guitar tuner
edit
Autoscroll
slow
fast
+/-
esc
set tempo
stop
    G            Bm      C          D           G
e|------3------------2-------0----------232-----3--
B|-----3--3---------3-------1--1------3-----3---3--
G|----0----0-------4-------0----o----2-------2--0--
R|---0------------4-------2---------0-----------0--
A|--2------------2-------3----------------------2--
E|----------------------------------------------3--

    G           Bm        C           D
------3------------2-------0---------2----------
-----3--3---------3-------1--1------3--3--------
----0----0-------4-------0----o----2-----2------
---0------------4-------2---------0-------------
--2------------2-------3---------0--------------
------------------------------------------------


G Bm C D  <- ESTO VA RASGUEADO

G                      Bm
CUANTAS NOCHES SIN DORMIR
          C            D
CUANTAS NOCHES DE PACION
G                         Bm
CUANTAS VECES TE SENTI VENIR
       C            D
A MIS BRAZOS CORAZON

Em                       Bm
Y ES QUE MIS MANOS VACIAS
     C                 D
TODAVIA SIGUEN EXTRAÑANDOTE
Em                       Bm
Y ES QUE MIS MANOS VACIAS
       C                      D
AUN SIGUE DIBUJANDO EN MI PIEL

G                         Bm
CUANTAS VECES TE DEJE PARTIR
        C                  D
Y EN SILENCIO UNA LAGRIMA RODO
G                         Bm
CON UN BESO HOY TE RECORDARE
       C                          D
Y EN MIS SUEÑOS ESTA NOCHE TE VERE

Em                       Bm
Y ES QUE MIS MANOS VACIAS
     C                  D
TODAVIA SIGUEN EXTRAÑANDOTE
Em                       Bm
Y ES QUE MIS MANOS VACIAS
      C                      D
AUN SIGUE DIBUJANDO EN MI PIEL

                  G  Em  Bm
TU IMAGEN DE MUJER
              C         D
TU IMAGEN DE MUJER DE MUJER
                  G  Em  Bm
TU IMAGEN DE MUJER
              C         D
TU IMAGEN DE MUJER DE MUJER

G Bm C D x2

solo:1
e|-----------------------------------------------
B|-----------------------------------------------
G|-----------------------------------------------
D|--7-9-9-7-55-7-7-9-9--9-9-10--10101010-9-7-5-7-
A|-----------------------------------------------
E|-----------------------------------------------

-------------------------------------------------
-------------------------------------------------
-------------------------------------------------
--7-9-9-7-55-12-10-9--99-10--9-10-9-10-9-1010-12-
-------------------------------------------------
-------------------------------------------------

Em                       Bm
Y ES QUE MIS MANOS VACIAS
     C                  D
TODAVIA SIGUEN EXTRAÑANDOTE
Em                       Bm
Y ES QUE MIS MANOS VACIAS
       C                      D
AUN SIGUE DIBUJANDO EN MI PIEL


G Bm C D X2

solo:2
e|----------------------------------------------------------
B|---------------------------------------10101010-----------
G|--7-12-11-7--1212-11-9-7-9-77--12-11-9----------12-11-9-7-
D|----------------------------------------------------------
A|----------------------------------------------------------
E|----------------------------------------------------------

------------------------------------------------------------------
--------------------------------------10101010--------------------
-7-12-11-7--1212-11-9-7-9--7--12-11-9----------12-11-11-9---------
----------------------------------------------------------12-10-9-
------------------------------------------------------------------
------------------------------------------------------------------


G                         Bm
CUANTAS VECES TE DEJE PARTIR
        C                  D
Y EN SILENCIO UNA LAGRIMA RODO
G                         Bm
CON UN BESO HOY TE RECORDARE
       C                          D
Y EN MIS SUEÑOS ESTA NOCHE TE VERE

Em                       Bm
Y ES QUE MIS MANOS VACIAS
     C                  D
TODAVIA SIGUEN EXTRAÑANDOTE
Em                       Bm
Y ES QUE MIS MANOS VACIAS
      C                      D
AUN SIGUE DIBUJANDO EN MI PIEL

                  G  Em  Bm
TU IMAGEN DE MUJER
              C         D
TU IMAGEN DE MUJER DE MUJER
                  G  Em  Bm
TU IMAGEN DE MUJER
              C         D    G
TU IMAGEN DE MUJER DE MUJER

Y ESTA ES LA ROLA BANDA ESPERO LES GUSTE
**ESTA VA PARA MI LAURITA PARA QUE SEPA CUATO LA EXTRAÑO***
TE ¡¡¡¡¡AMOOOO PEKEÑA!!!!!!
CHIDO BANDA SUERTE A TODOS....

CUALQUIER DUDA O COMENTARIO A MI CORREO BANDA
HELLSING_ALUCARD5@HOTMAIL

            
            
Suggest correction
Creating personal tab
Creating personal tab
You can edit any tab online and save it as your Personal.

You can edit, replace or remove any tab part or add personal notes – all changes will be seen only by you.

Personal tabs can be accessed anytime from any device, even offline.
Learn more »
Give kudos to tab author, rate the tab!
1 2 3 4 5
comments
print report bad tab
guest
Wanna post a correction for this tab? Suggest correction