Oops, an error
Loading. Please wait.

Fuego Helado tab

21 views 1 this week
no commentswrite comment
1 2 3 4 5
3 more votes to show rating
add to favorites
×
Save as Personal and add changes to this tab that will be seen only by you. Learn more ›
×
You can save this tab as Personal to edit and correct it or add notes. All changes will be seen only by you. Learn more »
launch autoscroll
font size
0
reset
how to read this tab
guitar tuner
edit
Autoscroll
slow
fast
+/-
esc
set tempo
stop
######################################################
## Artista: Karma Sudaca                            ##
## Titulo: Fuego Helado (Furia Interior)            ##
## Transcripto poR: Santiago Bazan ][Steampunk][ =P ##
######################################################

P = Pull      / = Slide Up
H = Hammer    \ = Slide Down

INTRO
E|----------------------------------------------------- ------------------------------------------------\
B|----------------------------------------------------- -------------------------------------------------\
G|----------------------------------------------------- --------------------------------------------------\
D|----------------------------------------------------- -----------------------------7/5-/-4/2------------/
A|---------4p0-----------4p0-----------4p0------------- ---------4p0-----------4p0---7/5-/-4/2-----------/
E|-2p0-2p0-------2p0-2p0-------2p0-2p0-------2-2-2-0-0- -2p0-2p0-------2p0-2p0-------5/3-/-2/0----------/
                                                                 A G  F# E
Riff
E|----------------------------------------------------- --------------------------------------------------------\
B|----------------------------------------------------- ---------------------------------------------------------\
G|----------------------------------------------------- ----------------------------------------------------------\
D|----------------------------------------------------- ----------------------------------------------------------/
A|---------4p0-----------4p0-----------4p0------------- ---------4p0-----------4p0-----------4p0-----------------/
E|-2p0-2p0-------2p0-2p0-------2p0-2p0-------2-2-2-0-0- -2p0-2p0-------2p0-2p0-------2p0-2p0-------2-2-2-0-2----/

VERSO
E|---2-2-----0------------------------------------------------------------------------------\
B|---2-2-----0----------------------------------------------------------------------2--------\
G|---2-2--------------------------------------------------------------------------4-2---------\
D|-4-----4-2----4-------4---4-4-4-4-4-4-4--4-4-4-4-4----4---4-4-4-4-4-4-4-4-4-4-4-4-2---------/
A|-4-----4-2----4-------4---4-4-4-4-4-4-4--4-4-4-4-4----4---4-4-4-4-4-4-4-4-4-4-4-2----------/
E|-2-----2-0----2--2/12\2---2-2-0-2-0-2-0--2-2-2-0-2----2---2-2-0-2-0-2-0-2-2-2-0-----------/
   \F#m/   \E/

Riff
E|----------------------------------------------------- --------------------------------------------------------\
B|----------------------------------------------------- ---------------------------------------------------------\
G|----------------------------------------------------- ----------------------------------------------------------\
D|----------------------------------------------------- ----------------------------------------------------------/
A|---------4p0-----------4p0-----------4p0------------- ---------4p0-----------4p0-----------4p0-----------------/
E|-2p0-2p0-------2p0-2p0-------2p0-2p0-------2-2-2-0-0- -2p0-2p0-------2p0-2p0-------2p0-2p0-------2-2-2-0-2----/

VERSO
E|---2-2-----0------------------------------------------------------------------------------\
B|---2-2-----0----------------------------------------------------------------------2--------\
G|---2-2--------------------------------------------------------------------------4-2---------\
D|-4-----4-2----4-------4---4-4-4-4-4-4-4--4-4-4-4-4----4---4-4-4-4-4-4-4-4-4-4-4-4-2---------/
A|-4-----4-2----4-------4---4-4-4-4-4-4-4--4-4-4-4-4----4---4-4-4-4-4-4-4-4-4-4-4-2----------/
E|-2-----2-0----2--2/12\2---2-2-0-2-0-2-0--2-2-2-0-2----2---2-2-0-2-0-2-0-2-2-2-0-----------/
   \F#m/   \E/

Estribillo
E|------------------5---------------\
B|-2-4--------------5----------------\
G|-2-4-7------------6-----------------\
D|-2-4-7-4------/7-5---12-14---14-----/
A|---2-5-4------/7-5---12-14---14----/
E|-------2---0-2/5-7---10-12---12---/
   A B D F#      A \B/  D  E    E

Riff
E|----------------------------------------------------- --------------------------------------------------------\
B|----------------------------------------------------- ---------------------------------------------------------\
G|----------------------------------------------------- ----------------------------------------------------------\
D|----------------------------------------------------- ----------------------------------------------------------/
A|---------4p0-----------4p0-----------4p0------------- ---------4p0-----------4p0-----------4p0-----------------/
E|-2p0-2p0-------2p0-2p0-------2p0-2p0-------2-2-2-0-0- -2p0-2p0-------2p0-2p0-------2p0-2p0-------2-2-2-0-2----/

VERSO
E|---2-2-----0------------------------------------------------------------------------------\
B|---2-2-----0----------------------------------------------------------------------2--------\
G|---2-2--------------------------------------------------------------------------4-2---------\
D|-4-----4-2----4-------4---4-4-4-4-4-4-4--4-4-4-4-4----4---4-4-4-4-4-4-4-4-4-4-4-4-2---------/
A|-4-----4-2----4-------4---4-4-4-4-4-4-4--4-4-4-4-4----4---4-4-4-4-4-4-4-4-4-4-4-2----------/
E|-2-----2-0----2--2/12\2---2-2-0-2-0-2-0--2-2-2-0-2----2---2-2-0-2-0-2-0-2-2-2-0-----------/
   \F#m/   \E/

Estribillo
E|------------------5-----------------\
B|-2-4--------------5------------------\
G|-2-4-7------------6-------------------\
D|-2-4-7-4------/7-5---12-14---14\4-----/
A|---2-5-4------/7-5---12-14---14\4----/
E|-------2---0-2/5-7---10-12---12\2---/
   A B D F#      A \B/  D  E    E


PUENTE
E|--------------------\
B|------5\4-----5\4----\
G|------5\4-----5\4-----\
D|-4--4-5\4-4-4-5\4-----/ X4
A|-4--4-----4-4--------/
E|-2--2-----2-2-------/


SOLO
E|------------2-0----------------------0-2-4-5-------7-9-12-14---12-12-12-12-12-14-14-14-14-14\2---\
B|----------------2-0--------------2-3----------7-10-------------13-13-13-13-13-15-15-15-15-15\2----\
G|--------------------2--------2-4-------------------------------------------------------------------\
D|-------4-2------------4-2/4------------------------------------------------------------------------/
A|----4-----4---------------------------------------------------------------------------------------/
E|-2-5---------------------------------------------------------------------------------------------/

PUENTE2
E|---------------------------------------------------\
B|------5\4-----5\4--------5\4-----5\4----------------\
G|------5\4-----5\4--------5\4-----5\4-----------------\
D|-4--4-5\4-4-4-5\4---4--4-5\4-4-4-5\4--7/5-/-4/2------/
A|-4--4-----4-4-------4--4-----4-4------7/5-/-4/2-----/
E|-2--2-----2-2-------2--2-----2-2------5/3-/-2/0----/

VERSO2
E|---------------------------------------------------------------------\
B|-------------------------------------------------------------2--------\
G|-----------------------------------------------------------4-2---------\
D|-4---4-4-4-4-4-4-4--4-4-4-4-4----4---4-4-4-4-4-4-4-4-4-4-4-4-2---------/ X3
A|-4---4-4-4-4-4-4-4--4-4-4-4-4----4---4-4-4-4-4-4-4-4-4-4-4-2----------/
E|-2---2-2-0-2-0-2-0--2-2-2-0-2----2---2-2-0-2-0-2-0-2-2-2-0-----------/

Estribillox2
E|------------------5-----------------\
B|-2-4--------------5------------------\
G|-2-4-7------------6-------------------\
D|-2-4-7-4------/7-5---12-14---14\4-----/ X2
A|---2-5-4------/7-5---12-14---14\4----/
E|-------2---0-2/5-7---10-12---12\2---/
   A B D F#      A \B/  D  E    E

Riff2
E|---------------------------------------------- ------------------------------------------------\
B|---------------------------------------------- -------------------------------------------------\
G|---------------------------------------------- --------------------------------------------------\
D|---------------------------------------------- -----------------------------7/5-/-4/2------------/
A|---------4p0-----------4p0-----------4p0------ ---------4p0-----------4p0---7/5-/-4/2-----------/
E|-2p0-2p0-------2p0-2p0-------2p0-2p0-------2-- -2p0-2p0-------2p0-2p0-------5/3-/-2/0----------/
                                                                 A G  F# E

Outro FinaL!
E|-12xX--17xX-------------||FINAL
B|-12xX--12xX-------------||FINAL
G|------------------------||FINAL
D|------------2---4-2-4---||FINAL
A|------------2---4-2-4---||FINAL
E|------------0---2-0-2---||FINAL

LETRA
========================================================

Ay de mi! si escondo mis manos para no sufrir.
Ay de ti! si enciendes mi fuego y me haces hervir.

Siento el sol, que quema mi cuerpo y castiga mi piel.
Siento el mar que corre en mis venas y me hace brillar.

Yo no se si pelearla u olvidar
déjame un cajón en el diván.
...Asi pueda comparar!

Se acerco, hurgó mis heridas fingió una razón.
Che Varon! no pienses que es facil, yo nunca me doy.

Yo no se si pelearla u olvidar
déjame un cajón en el diván.
...Asi pueda comparar!

Se Acabo, desnudo mi alma y a vos te la doy.
El final, se escribe con sangre para no olvidar.

Yo no se si pelearla u olvidar
déjame un cajón en el diván...

Yo no se si pelearla u olvidar
déjame un cajón en el diván.
...Asi pueda comparar!
========================================================

******************************************************************************************************************
* Ahi Esta... eso es todo, Cualkier duda mandenme un mail a steampunk_molestos@ --- Ahi Se Ven!!!! xD *
******************************************************************************************************************

            
            
Suggest correction
Creating personal tab
Creating personal tab
You can edit any tab online and save it as your Personal.

You can edit, replace or remove any tab part or add personal notes – all changes will be seen only by you.

Personal tabs can be accessed anytime from any device, even offline.
Learn more »
Give kudos to tab author, rate the tab!
1 2 3 4 5
comments
print report bad tab
guest
Wanna post a correction for this tab? Suggest correction