Oops, an error
Loading. Please wait.

Happiness tab

version 1
version 1

Whole song

Interactive

277 views 1 this week
no commentswrite comment
1 2 3 4 5
2 more votes to show rating
add to favorites
×
Save as Personal and add changes to this tab that will be seen only by you. Learn more ›
×
You can save this tab as Personal to edit and correct it or add notes. All changes will be seen only by you. Learn more »
launch autoscroll
font size
0
reset
how to read this tab
guitar tuner
edit
Autoscroll
slow
fast
+/-
esc
set tempo
stop
Kasabian - Happiness


Open D Tuning
         
Open D Chords

Bm 020020
G  555555 
A  777777

[Intro]

e|------------------------------| x4
B|------------------------------|
G|------0------------0----------|
D|---------0------------0-------|
A|------------0------------0----|
E|--0------------0--------------|

[Verse]

(eg)  I     will_______________            follow you____now_____             wherev -er  you_________
e|-------------------------------------------------------------------------------------------------------| x2
B|-------------------------------------------------------------------------------------------------------|
G|-------0-----------0------------0-----------0----------------------------------------------------------|
D|----------0-----------0------------0-----------0----------2-----------2-----------2-----------2--------|
A|-------------0-----------0------------0-----------0----3-----3-----3-----3-----3-----3-----3-----3-----|
E|---0------------0-----------0------------0----------------------5-----------5-----------5-----------5--|

[Verse]
   
  Bm              G                  A      
I never wanna see those tears again
A
No no
Bm
When will you realise
G
That I ain't that tough

[Chorus]
 
(eg) Save    what you   got            Keep  it    safe
e|---------------------------------------------------------------------------| x4
B|---------------------------------------------------------------------------|
G|---------------------------------------------------------------------------|
D|--12-12--12---10-----------12--9------9-------9--10------------------------|
A|------------------12--10----------10-----10--------------------------------|
E|---------------------------------------------------------------------------|

e|---------------------------------------------------------------------------| x2
B|---------------------------------------------------------------------------|
G|---------------------------------------------------------------------------|
D|12--12-12-12-12--12---10-----------12--9------9-------9--10----------------|
A|--------------------------12--10----------10-----10------------------------|
E|---------------------------------------------------------------------------|

[Verse]

(eg) And  I     will_______________            have a thou____sand_____     dreams       
e|-------------------------------------------------------------------------------------------------------| x2
B|-------------------------------------------------------------------------------------------------------|
G|-------0-----------0------------0-----------0----------------------------------------------------------|
D|----------0-----------0------------0-----------0----------2-----------2-----------2-----------2--------|
A|-------------0-----------0------------0-----------0----3-----3-----3-----3-----3-----3-----3-----3-----|
E|---0------------0-----------0------------0----------------------5-----------5-----------5-----------5--|

[PreChorus]

     Bm              G                  A      
And I never wanna see those tears again
A
No no
Bm
When will you realise
G
That you make me me now

[Chorus]

(eg) Save    what you   got            Keep  it    safe
e|---------------------------------------------------------------------------| x4
B|---------------------------------------------------------------------------|
G|---------------------------------------------------------------------------|
D|--12-12--12---10-----------12--9------9-------9--10------------------------|
A|------------------12--10----------10-----10--------------------------------|
E|---------------------------------------------------------------------------|

[Bridge]

e|------------------------------| X2
B|------------------------------|
G|------0------------0----------|
D|---------0------------0-------|
A|------------0------------0----|
E|--0------------0--------------|

(eg) and happiness___   Oh      it's    always   been    you
e|---------------------------------------------------------------------------| x2
B|---------------------------------------------------------------------------|
G|---------------------------------------------------------------------------|
D|12--12-12-12-12--12---10-----------12--9------9-------9--10----------------|
A|--------------------------12--10----------10-----10------------------------|
E|---------------------------------------------------------------------------|


Standard Tuning Guitar. - You can play in with open D chords that won't be included in this tab but I 
recommend Standard chords here even if it requires another guitar.

  And   I    know    you    got     to   make     it    right
e|---10-----10--------7-----7---------5-----5---------3-----3------| 
B|---10-----10--------7-----7---------5-----5---------3-----3------|
G|---11-----11--------7-----7---------6-----6---------4-----4------|
D|---12-----12--------9-----9---------7-----7---------5-----5------|
A|---12-----12--------9-----9---------7-----7---------5-----5------|
E|---10-----10---10---7-----7----7----5-----5----5----3-----3----3-|

    Hanging   all    my      feelings      on  these  new    satellites
e|---10-----10--------7-----7---------5-----5---------3--------3-----3---------| 
B|---10-----10--------7-----7---------5-----5---------3--------3-----3---------|
G|---11-----11--------7-----7---------6-----6---------4--------4-----4---------|
D|---12-----12--------9-----9---------7-----7---------5--------5-----5---------|
A|---12-----12--------9-----9---------7-----7---------5--------5-----5---------|
E|---10-----10---10---7-----7----7----5-----5----5----3--------3-----3----3----|
 
     And   I've    done my   time     Yeah   I've paid my   dues
e|---10-----10--------7-----7---------5-----5---------3-----3------| 
B|---10-----10--------7-----7---------5-----5---------3-----3------|
G|---11-----11--------7-----7---------6-----6---------4-----4------|
D|---12-----12--------9-----9---------7-----7---------5-----5------|
A|---12-----12--------9-----9---------7-----7---------5-----5------|
E|---10-----10---10---7-----7----7----5-----5----5----3-----3----3-|

    You know there's  one   thing     That gets us together              It's gonna 
e|---10-----10--------7-----7---------5-----5-----5-----5-----5-----5-----5------5-----|
B|---10-----10--------7-----7---------5-----5-----5-----5-----5-----5-----5------5-----|
G|---11-----11--------7-----7---------6-----6-----6-----6-----6-----6-----6------6-----|
D|---12-----12--------9-----9---------7-----7-----7-----7-----7-----7-----7------7-----|
A|---12-----12--------9-----9---------7-----7-----7-----7-----7-----7-----7------7-----|
E|---10-----10---10---7-----7----7----5-----5-----5-----5-----5-----5-----5------5-----|

 keep us     together   now   now   now  now             Its Happiness____ 
e|---3-----3-----3-----3-----3-----3-----3-----3-----|
B|---3-----3-----3-----3-----3-----3-----3-----3-----|
G|---4-----4-----4-----4-----4-----4-----4-----4-----|
D|---5-----5-----5-----5-----5-----5-----5-----5-----|
A|---5-----5-----5-----5-----5-----5-----5-----5-----|
E|---3-----3-----3-----3-----3-----3-----3-----3-----|

[Outro]

e|---------------------------------------------------------------------------| x12
B|---------------------------------------------------------------------------|
G|---------------------------------------------------------------------------|
D|12--12-12-12-12--12---10-----------12--9------9-------9--10----------------|
A|--------------------------12--10----------10-----10------------------------|
E|---------------------------------------------------------------------------|


I will follow you now
Wherever you go
I'll be with you now
Stick around forever

And I never wanna see those tears again
No no
When will you realise
That I ain't that tough

Save what you got
Keep it safe
Don't ever stop
It's nothing more
It's nothing less
It's all we got
It's happiness
It's happiness
Ain't that right

And I will have a thousand dreams
Of how I came for you
Through these coloured streams
Look into the future

And I never wanna see those tears again
No no
When will you realise
That you make me me now

Save what you got
Keep it safe
Don't ever stop
It's nothing more
It's nothing less
It's all we got
It's happiness

And happiness
Oh it's always been you
It's always with you

And I know you got to make it right
Hanging all my feelings on these new satellites
And I've done my time
Yeah I've paid my dues
You know there's one thing
That gets us together
It's gonna keep us together now

Save what you got
Keep it safe
Don't ever stop
It's nothing more
It's nothing less
It's all we got
It's happiness
Happiness

************************************

| x   Dead note
| g   Grace note
| (n) Ghost note
| h   Hammer-on
| p   Pull-off
| r   Release
| >   Accented note
| t   Tapping
| b   Bend
| br  Bend release
| pb  Pre-bend
| pbr Pre-bend release
| /   Slide up
| \   Slide down
| ~   Vibrato
| s   Slap
| P   Pop
| PM  Palm mute
| TR  Trill
| N   Tremolo

************************************

            
            
Suggest correction
Creating personal tab
Creating personal tab
You can edit any tab online and save it as your Personal.

You can edit, replace or remove any tab part or add personal notes – all changes will be seen only by you.

Personal tabs can be accessed anytime from any device, even offline.
Learn more »
Give kudos to tab author, rate the tab!
1 2 3 4 5
comments
print report bad tab
guest
You may want to rate the tab now too:
select rating
Wanna post a correction for this tab? Suggest correction