Oops, an error
Loading. Please wait.

Man Of Simple Pleasures intro tab

version 1
version 1

Intro

Whole song

  • Full song with melodic guitar and rhythm guitar.

Interactive

7,620 views 9 this week
5 commentsread comments
1 2 3 4 5
x 3
add to favorites
×
Save as Personal and add changes to this tab that will be seen only by you. Learn more ›
×
You can save this tab as Personal to edit and correct it or add notes. All changes will be seen only by you. Learn more »
launch autoscroll
font size
0
reset
how to read this tab
guitar tuner
edit
Autoscroll
slow
fast
+/-
esc
set tempo
stop
Author
Difficulty
-------------------------------------------------------------------------------
                             Man of simple pleasures - Kasabian
-------------------------------------------------------------------------------
Tabbed by: Kieran satchell
Email:Kazkieran@hotmail.co.uk

Tuning:Standard
Sorry, I only have worked out the main rifff and intro, I am working on the rest
please contact me if anyone can contribute and im sure something can be arrainged

e|-----------------------------------------------------2---------2---------------|
B|-----------------------------------------------------2---------2---------------|
G|-----------------------------------------------------2---------2---------------|
D|-------------------------------------------------------------------------------|
A|-4---4------3----3-------4---4------3---2--------------------------------------|
E|----------------------------------------------2---------2--2-------------------|


e|-----------------------------------------------------2---------2---------------|
B|-----------------------------------------------------2---------2---------------|
G|-----------------------------------------------------2---------2---------------|
D|-------------------------------------------------------------------------------|
A|-4---4------3----3-------4---4------3---2--------------------------------------|
E|----------------------------------------------2---------2--2-------------------|

e|----------2----------2----------2---------2--------------------------------------|
B|----------2----------2----------2---------2--------------------------------------|
G|----------2----------2----------2---------2--------------------------------------|
D|---------------------------------------------------------------------------------|
A|---4------------3----------------------------------------------------------------|
E|-------------------------2--2--------2--2----------------------------------------|
VERSE: follows a very repetative pattern ( you can pick up the rythem and timing) REPEATE THIS
e|-----------2--------2----------2----------2----------------------------------------|
B|-----------2--------2----------2----------2----------------------------------------|
G|-----------2--------2----------2----------2----------------------------------------|
D|-----------------------------------------------------------------------------------|
A|-----------------------------------------------------------------------------------|
E|------2--------2-2--------2-------2--2---------------------------------------------|
I know this seems kinda boring, but kasabian dosent focus
that much on complicated guitar riffs so i belive this is all there is to the verse

            
            
Suggest correction
Creating personal tab
Creating personal tab
You can edit any tab online and save it as your Personal.

You can edit, replace or remove any tab part or add personal notes – all changes will be seen only by you.

Personal tabs can be accessed anytime from any device, even offline.
Learn more »
Give kudos to tab author, rate the tab!
1 2 3 4 5
comments
print report bad tab
5 comments total. Showing first comments.
-2 reply
TheFunkyBass 263 Jun 29, 2013 10:24 PM

Are you deaf?

-2 reply
katsukieran 48 Jul 02, 2013 06:05 AM

No but your a knob

+2 reply
TheFunkyBass 263 Jul 15, 2013 12:32 AM

e|-----------------------------------------------------2--2---------2---------------|
B|-----------------------------------------------------2--2---------2---------------|
G|-----------------------------------------------------2--2---------2---------------|
D|-----------------------------------------------------4--4---------4---------------|
A|-3---3------2---2-------3---3------2---2-------------4--4---------4---------------|
E|----------------------------------------------2--2------------2-------------------|

guest
You may want to rate the tab now too:
select rating
Wanna post a correction for this tab? Suggest correction