Oops, an error
Loading. Please wait.

Vlad The Impaler bass

version 3
version 3

Whole song

Interactive

16,100 views 1 this week
3 commentsread comments
1 2 3 4 5
x 5
add to favorites
×
Save as Personal and add changes to this tab that will be seen only by you. Learn more ›
×
You can save this tab as Personal to edit and correct it or add notes. All changes will be seen only by you. Learn more »
launch autoscroll
font size
0
reset
guitar tuner
edit
Autoscroll
slow
fast
+/-
esc
set tempo
stop
Author
-------------------------------------------------------------------------------
			     Vlad The Impaler - Kasabian
-------------------------------------------------------------------------------

Tabbed By : Samlawd
e-mail: Samuel.bell@live.co.uk - any problems, you know what to do.

Tuning: Standard

G|---------------------------------------------------------------------------|
D|-------11------------11------------11--------------------------------------|
A|-13-13----13/8/13-13----13/8/13-13----13-12-12-11-11/8/13------------------|
E|---------------------------------------------------------------------------|

Repeat through the song.
Cheers

            
            
Suggest correction
Creating personal tab
Creating personal tab
You can edit any tab online and save it as your Personal.

You can edit, replace or remove any tab part or add personal notes – all changes will be seen only by you.

Personal tabs can be accessed anytime from any device, even offline.
Learn more »
comments
print report bad tab
3 comments total.
0 reply
geoorgemurray 30 May 12, 2009 03:56 PM

Perfect!

cheers

+2 reply
IndieJoe 1,997 May 23, 2009 01:23 PM

It changes man trust me!
i was listning to it for hours making sure i got the right notes

+1 reply
DomStables 294 Jul 17, 2009 09:48 AM

G|----------------------------------------------------|
D|------11-----------1111-----------11----------------|
A|13-13----13\-13-13------13\-13-13----13-1212-1111---|
E|--------------------------------------------------11|

try that for the main riff, its spot on im almost certain, just slide down a little bit otherwise its bloody hard :P

guest
You may want to rate the tab now too:
select rating
Wanna post a correction for this tab? Suggest correction