Oops, an error
Loading. Please wait.

Lethean tab

916 views 24 this week
no commentswrite comment
1 2 3 4 5
3 more votes to show rating
add to favorites
×
Save as Personal and add changes to this tab that will be seen only by you. Learn more ›
×
You can save this tab as Personal to edit and correct it or add notes. All changes will be seen only by you. Learn more »
launch autoscroll
font size
0
reset
how to read this tab
guitar tuner
edit
Autoscroll
slow
fast
+/-
esc
set tempo
stop
Author
Difficulty
About this tab version
This version has the main parts arranged for standard tuning. Katatonia uses C standard on their guitars for this song, including low C chords on rhythm guitar during the solo so it is not included here. Was this info helpful? Yes No
Katatonia - Lethean
Tuning - Standard
tabbed by jjhand



[Intro]

e|-------------------------|------------------------|--------------------------|
B|---------2---1-------1---|------------------------|----------2---1-------1---|
G|-----------------3-------|-1----------------------|--------------------------|
D|-3---3-------------------|-----1---1------1h3/5---|-----1h3----------3-------|
A|-------------------------|------------------------|-4------------------------|
E|-------------------------|------------------------|--------------------------|

e|-------------------------|
B|-------------------------|
G|-------------------------|
D|-3---3-------------------|
A|-----------------3/4-----|
E|---------3h4p3p1---------|



[Verse]

e|--------------------------|------------------------|-------------------------|
B|----------1---------------|------------------------|---------2---1-------1---|
G|------1h3-----3---0---1---|------------------------|-----1h3-----------------|
D|--------------------------|---------3------1h3-----|-----------------3-------|
A|--------------------------|-1---1------------------|-4-----------------------|
E|-(1)----------------------|------------------------|-------------------------|

e|--------------------------|
B|--------------------------|
G|--------------------------|
D|-3-------3----------------| play 4x similarly
A|--------------------------|
E|-----1--------------------|


[Prechorus] 

 Synthesizer - No guitar 



[Chorus]

e|-------------------------|------------------------|
B|-------------------------|------------------------|
G|-------------------------|------------------------|
D|-3---3---3---3---8---8---|-8---8---8------8-------|
A|-3---3---3---3---6---6---|-6---6---6------6-------|
E|-1---1---1---1---6---6---|-6---6---6------6-------|

e|-------------------------|------------------------|
B|-------------------------|------------------------|
G|-3---3---3---3-----------|------------------------|
D|-3---3---3---3---3---3---|-3---3------------------|
A|-1---1---1---1---3---3---|-3---3-------------3/4~-|
E|-----------------1---1---|-1---1-----3h4p3p1------|

repeat chorus


[Chorus Part 2]

e|-------------------------|------------------------|--------------------------|
B|---------2---1-------1---|------------------------|----------2---1-------1---|
G|-----------------3-------|-1----------------------|--------------------------|
D|-3---3-------------------|-----1---1------1h3/5---|-----1h3----------3-------|
A|-------------------------|------------------------|-4------------------------|
E|-------------------------|------------------------|--------------------------|

e|-------------------------|
B|-------------------------|
G|-------------------------|
D|-3---3-------------------|  play 2x
A|-----------------3/4-----|
E|---------3h4p3p1---------|



[Verse 2]

Rest for 8 measures, then resume:

e|--------------------------|------------------------|-------------------------|
B|----------1---------------|------------------------|---------2---1-------1---|
G|------1h3-----3---0---1---|------------------------|-----1h3-----------------|
D|--------------------------|---------3------1h3-----|-----------------3-------|
A|--------------------------|-1---1------------------|-4-----------------------|
E|-(1)----------------------|------------------------|-------------------------|

e|--------------------------|
B|--------------------------|
G|--------------------------|
D|-3-------3----------------| play 4x similarly
A|--------------------------|
E|-----1--------------------|



[Bridge]
   
e|----------------------------------|-----------------------------|
B|----------------------------------|-----------------------------|
G|----------------------------------|-----------------------------|
D|-------------1---1----------------|-------------------------1---|  play 3x
A|-4---4-3---3-1---1-4---4--3---3-3-|-4-3-----3-3-4-3-----4-3-1-3-|
E|-2---2-1---1-------2---2--1---1-1-|-2-1-----1-1-2-1-----2-1---1-|
   slight PM throughout


e|-----------------------|---------|
B|-----------------------|---------|
G|-----------------------|---------|
D|-8----8p7p5------------|---------|
A|------------8p7p5------|---------|
E|------------------6----|-5PH~----|



[Solo]

e|-13~-----13~--------11-|---------------------------------------------|
B|-----------------------|-13-10----13-10-------10---------------------|
G|-----------------------|-------11-------11-------11------------------|
D|-----------------------|-------------------13-------13-10-11---10h11-|
A|-----------------------|---------------------------------------------|
E|-----------------------|---------------------------------------------|

e|------------------------------|------------------------------|
B|------------------------------|------------------------------|
G|------------------------------|------------------------------|
D|-10PH~-----5h7-8--7h8p7-------|------------------------------|
A|----------8-------------9--8--|-6---8---8---8PH~---------8---|
E|------------------------------|------------------------------|

e|-----------------------------------------------|--------------------------------------|
B|-----------------------------------------------|--------------------------------------|
G|-----------------------------------------------|--------------------------------------|
D|-----------------------------------------------|-7h8p7--------------------------------|
A|-9p8p6-9p8p6-9p8p6-9p8p6-9p8p6-9p8p6-9p8p6-8-9-|-------9p8p6-6h8-----6h8-----6h8------|
E|-----------------------------------------------|----------------6h7h8---6h7h8---6h7h8-|

e|------------------------------13-16-15~---|
B|---------------------------13-------------|
G|-------12-12h13p12------13----------------|
D|-14-15------------15p14-------------------|
A|------------------------------------------|
E|------------------------------------------|



[Last Prechorus]

e|--------------------------|
B|--------------------------|
G|-5--5-----5--5------------|
D|-5--5-----5--5------------|  chord attack during synth part
A|-3--3-----3--3------------|
E|--------------------------|



[Last Chorus]


e|-------------------------|-------------------------|------------------------|
B|-------------------------|-------------------------|------------------------|
G|-------------------------|-3---3---3---3-----------|------------------------|
D|-----------------8---8---|-3---3---3---3---3---3---|-3---3------------------|
A|-----------------6---6---|-1---1---1---1---3---3---|-3---3-------------3/4~-|
E|-----------------6---6---|-----------------1---1---|-1---1-----3h4p3p1------|

e|-------------------------|------------------------|
B|-------------------------|------------------------|
G|-------------------------|------------------------|
D|-3---3---3---3---8---8---|-8---8---8------8-------|
A|-3---3---3---3---6---6---|-6---6---6------6-------|
E|-1---1---1---1---6---6---|-6---6---6------6-------|

e|-------------------------|------------------------|
B|-------------------------|------------------------|
G|-3---3---3---3-----------|------------------------|
D|-3---3---3---3---3---3---|-3---3------------------|
A|-1---1---1---1---3---3---|-3---3-------------3/4~-|
E|-----------------1---1---|-1---1-----3h4p3p1------|



[Outro]

e|-------------------------|------------------------|--------------------------|
B|---------2---1-------1---|------------------------|----------2---1-------1---|
G|-----------------3-------|-1----------------------|--------------------------|
D|-3---3-------------------|-----1---1------1h3/5---|-----1h3----------3-------|
A|-------------------------|------------------------|-4------------------------|
E|-------------------------|------------------------|--------------------------|

e|-------------------------|
B|-------------------------|
G|-------------------------|
D|-3---3-------------------|  play 4x and fade out
A|-----------------3/4-----|
E|---------3h4p3p1---------|



************************************
KEY:

| (n) Ghost note
| h   Hammer-on
| p   Pull-off
| /   Slide up
| \   Slide down
| ~   Vibrato
| PM  Palm mute
| PH  Pinch harmonic

************************************

            
            
Suggest correction
Creating personal tab
Creating personal tab
You can edit any tab online and save it as your Personal.

You can edit, replace or remove any tab part or add personal notes – all changes will be seen only by you.

Personal tabs can be accessed anytime from any device, even offline.
Learn more »
Give kudos to tab author, rate the tab!
1 2 3 4 5
comments
print report bad tab
guest
You may want to rate the tab now too:
select rating
Wanna post a correction for this tab? Suggest correction