Oops, an error
Loading. Please wait.

For My Dog Jack ukulele

127 views 1 this week
no commentswrite comment
1 2 3 4 5
3 more votes to show rating
add to favorites
×
Save as Personal and add changes to this tab that will be seen only by you. Learn more ›
×
You can save this tab as Personal to edit and correct it or add notes. All changes will be seen only by you. Learn more »
launch autoscroll
font size
0
reset
transpose
0
reset
simplify chords
display chords
guitar tuner
edit
Autoscroll
slow
fast
+/-
esc
set tempo
stop
Author
Difficulty
Strumming
There is no strumming pattern for this song yet. and get +5 IQ
   C                       Am7                         Am
A|--3------------7-------|--0--------------------7--|--0----------------7----|
E|--0--------------------|--5-----------------------|--0---------------------|
C|--0--------------------|--0-----------------------|--0---------------------|
G|--0--------------------|--2-----------------------|--2---------------------|
   Its your anniversary,   and you're six years old,  and outside its snowing, so i 
    
   F           Gsus4 Fadd9 Dm                        F
A|--0-----7--5--3-----0--|--0-----------------------|--0---------------------|
E|--1-----------3-----1--|--1-----------------------|--1---------------------|
C|--0-----------2-----0--|--2-----------------------|--0---------------------|
G|--2-----------0-----0--|--2-----------------------|--2---------------------|
  guess must be cold cause today's the day,       six years ago 

                 C
A|----------------3------|
E|----------------0------|
C|----------------0------|
G|----------------0------|
  we brought you home


[Verse 1]

C
Its your anniversary
Am7
and you're six years old
Am
and outside its snowing
F                      Gsus4   Fadd9
so i guess it must be cold    Cause
  Dm                  F         
today's the day, six years ago
                C
we brought you home


[Verse 2}

C
You still have the red hat
Am7
you sleep with every night
Am
after you're done eating
F                    Gsus4   Fadd9
you cry and hold it tight   cause
Dm                   F
that's the hat, mom wore when we
             C
brought you home


[Bridge]

         C             F                Am               G
And you fly like the wind to catch the ball that doesn't matter
C               F
Playing in the yard
C          F
Me on my guitar
C               F               Am            G    
  You'll never know how much i love the day i met you
C                  F
thinking about my friends
C                F
you are my best friend


[Verse 3]

C
Its your anniversary
Am7
and you're six years old
Am
and outside its snowing
F                      Gsus4   Fadd9
so i guess it must be cold    Cause
      Dm                    F         
today's the day, six years ago
                C
we brought you home

            
            
Suggest correction
Creating personal tab
Creating personal tab
You can edit any tab online and save it as your Personal.

You can edit, replace or remove any tab part or add personal notes – all changes will be seen only by you.

Personal tabs can be accessed anytime from any device, even offline.
Learn more »
Give kudos to tab author, rate the tab!
1 2 3 4 5
comments
print report bad tab
guest
You may want to rate the tab now too:
select rating
Wanna post a correction for this tab? Suggest correction