Oops, an error
Loading. Please wait.

Hungry Falling On My Knees tab

version 1
version 1

Whole song

22 views 1 this week
no commentswrite comment
1 2 3 4 5
3 more votes to show rating
add to favorites
×
Save as Personal and add changes to this tab that will be seen only by you. Learn more ›
×
You can save this tab as Personal to edit and correct it or add notes. All changes will be seen only by you. Learn more »
launch autoscroll
font size
0
reset
how to read this tab
guitar tuner
edit
Autoscroll
slow
fast
+/-
esc
set tempo
stop
Standard Tuning

[Intro]
    Cadd9    Am7/G    Gsus     Fmaj7
e|------3--------3----------3------3-1----|
B|--------3--------3-------------1--------|
G|------------------------0---------------|
D|----2-----------------0------3----------|
A|--3--------0--------------3-------------|
E|-------------3------3-------------------| (x2)

[Verse 1]
    Cadd9    Am7/G    Gsus     Fmaj7
e|------3--------3----------3------3-1----|
B|--------3--------3-------------1--------|
G|------------------------0---------------|
D|----2-----------------0------3----------|
A|--3--------0--------------3-------------|
E|-------------3------3-------------------|
    Hungry, I come to You, for I know You satisfy

    Cadd9    Am7/G    Gsus     Fmaj7
e|------3--------3----------3------3-1----|
B|--------3--------3-------------1--------|
G|------------------------0---------------|
D|----2-----------------0------3----------|
A|--3--------0--------------3-------------|
E|-------------3------3-------------------|
    I am empty, but I know Your love does not run dry

[Pre-Chorus 1]
    Gsus     Fmaj7    Gsus     Fmaj7
e|--------3------3-1--------3------3-1--|
B|-------------1-----------------1------|
G|------0-----------------0-------------|
D|----0------3----------0------3--------|
A|--------3-----------------3-----------|
E|--3-----------------3-----------------|
    And so I wait for You, so I wait for You

[Chorus 1]
    Cadd9    Fmaj7    Cadd9    Fmaj7
e|------3--------3-1------3--------3-1--|
B|--------3----1------------3----1------|
G|--------------------------------------|
D|----2------3----------2------3--------|
A|--3-----------------3-----------------|
E|--------------------------------------|
    I'm falling on my knees, offering all of me

    Cadd9    Fmaj7    Cadd9    Fmaj7
e|------3--------3-1------3--------3-1--|
B|--------3----1------------3----1------|
G|--------------------------------------|
D|----2------3----------2------3--------|
A|--3-----------------3-----------------|
E|--------------------------------------|
    Jesus, You’re all this heart is living for

[Verse 2]
    Cadd9    Am7/G    Gsus     Fmaj7
e|------3--------3----------3------3-1----|
B|--------3--------3-------------1--------|
G|------------------------0---------------|
D|----2-----------------0------3----------|
A|--3--------0--------------3-------------|
E|-------------3------3-------------------|
    Broken, I run to You, for Your arms are open wide

    Cadd9    Am7/G    Gsus     Fmaj7
e|------3--------3----------3------3-1----|
B|--------3--------3-------------1--------|
G|------------------------0---------------|
D|----2-----------------0------3----------|
A|--3--------0--------------3-------------|
E|-------------3------3-------------------|
    I am weary, but I know Your touch restores my life 

[Pre-Chorus 1]
    Gsus     Fmaj7    Gsus     Fmaj7
e|--------3------3-1--------3------3-1--|
B|-------------1-----------------1------|
G|------0-----------------0-------------|
D|----0------3----------0------3--------|
A|--------3-----------------3-----------|
E|--3-----------------3-----------------|
    And so I wait for You, so I wait for You

[Chorus 1]
    Cadd9    Fmaj7    Cadd9    Fmaj7
e|------3--------3-1------3--------3-1--|
B|--------3----1------------3----1------|
G|--------------------------------------|
D|----2------3----------2------3--------|
A|--3-----------------3-----------------|
E|--------------------------------------|
    I'm falling on my knees, offering all of me

    Cadd9    Fmaj7    Cadd9    Fmaj7
e|------3--------3-1------3--------3-1--|
B|--------3----1------------3----1------|
G|--------------------------------------|
D|----2------3----------2------3--------|
A|--3-----------------3-----------------|
E|--------------------------------------|
    Jesus, You’re all this heart is living for

[Instrumental]
    Cadd9    Am7/G    Gsus     Fmaj7
e|------3--------3----------3------3-1----|
B|--------3--------3-------------1--------|
G|------------------------0---------------|
D|----2-----------------0------3----------|
A|--3--------0--------------3-------------|
E|-------------3------3-------------------| (x2)

[Pre-Chorus 2]
    Gsus     Fmaj7    Gsus     Fmaj7
e|--------3------3-1--------3------3-1--|
B|-------------1-----------------1------|
G|------0-----------------0-------------|
D|----0------3----------0------3--------|
A|--------3-----------------3-----------|
E|--3-----------------3-----------------|
    And so I wait for You, so I wait for You

    Gsus     Fmaj7    Gsus     
e|--------3------3-1--------3-----------|
B|-------------1------------------------|
G|------0-----------------0-------------|
D|----0------3----------0---------------|
A|--------3-----------------3-----------|
E|--3-----------------3-----------------|
    And so I wait for You

[Chorus 2]
    Cadd9    Fmaj7    Cadd9    Fmaj7
e|------3--------3-1------3--------3-1--|
B|--------3----1------------3----1------|
G|--------------------------------------|
D|----2------3----------2------3--------|
A|--3-----------------3-----------------|
E|--------------------------------------|
    I'm falling on my knees, offering all of me

    Cadd9    Fmaj7    Cadd9    Fmaj7
e|------3--------3-1------3--------3-1--|
B|--------3----1------------3----1------|
G|--------------------------------------|
D|----2------3----------2------3--------|
A|--3-----------------3-----------------|
E|--------------------------------------|
    Jesus, You’re all this heart is living for

    Cadd9    Fmaj7    Cadd9    Fmaj7
e|------3--------3-1------3--------3-1--|
B|--------3----1------------3----1------|
G|--------------------------------------|
D|----2------3----------2------3--------|
A|--3-----------------3-----------------|
E|--------------------------------------|
    I'm falling on my knees, offering all of me

    Cadd9    Fmaj7    Cadd9    Fmaj7
e|------3--------3-1------3--------3-1--|
B|--------3----1------------3----1------|
G|--------------------------------------|
D|----2------3----------2------3--------|
A|--3-----------------3-----------------|
E|--------------------------------------|
    Jesus, You’re all this heart is living for

[End]
    Cadd9    Am7/G    Gsus     Fmaj7
e|------3--------3----------3------3-1----|
B|--------3--------3-------------1--------|
G|------------------------0---------------|
D|----2-----------------0------3----------|
A|--3--------0--------------3-------------|
E|-------------3------3-------------------|
    Hungry, I come to You, for I know You satisfy

            
            
Suggest correction
Creating personal tab
Creating personal tab
You can edit any tab online and save it as your Personal.

You can edit, replace or remove any tab part or add personal notes – all changes will be seen only by you.

Personal tabs can be accessed anytime from any device, even offline.
Learn more »
Give kudos to tab author, rate the tab!
1 2 3 4 5
comments
print report bad tab
guest
You may want to rate the tab now too:
select rating
Wanna post a correction for this tab? Suggest correction