Oops, an error
Loading. Please wait.

Hungry Falling On My Knees solo tab

version 1
version 1

Whole song

4,817 views 1 this week
2 commentsread comments
1 2 3 4 5
1 last vote to show rating
add to favorites
×
Save as Personal and add changes to this tab that will be seen only by you. Learn more ›
×
You can save this tab as Personal to edit and correct it or add notes. All changes will be seen only by you. Learn more »
launch autoscroll
font size
0
reset
how to read this tab
guitar tuner
edit
Autoscroll
slow
fast
+/-
esc
set tempo
stop
Author
Difficulty
-------------------------------------------------------------------------------
                  HUNGRY (FALLING ON MY KNEES) - Kathryn Scott
-------------------------------------------------------------------------------
Tabbed by: JP
Key: C (same as "Chords" by voodoo_doll85)
Tuning: Standard
Album: I Could Sing of Your Love Forever, Vol. 2 (Live compilation)

Look it up on iTunes and get it to listen to the solo, it's an amazing song anyways.
Please note that the solo is only in the live version of the song.

Medium Distortion:
e|-----8--7-------------------8--7-------------------------------------------|
B|--8--------8-----10------8--------8----------------------------------------|
G|--------------9--9~------------------9--7b9-r7---5-7--10b12-r10-9----------|
D|-----------------7---------------------------------------------------------|
A|---------------------------------------------------------------------------|
E|---------------------------------------------------------------------------|

e|---------------------------------------------------------------------------|
B|-10p8-8h10-10/13-13----15p13-13h15h17-17p15p13-13h15-15p13-13-13-----------|
G|--------------------12-------------------------------------------12--------|
D|---------------------------------------------------------------------------|
A|---------------------------------------------------------------------------|
E|---------------------------------------------------------------------------|

e|--------10-------------------|
B|-13-13-------13--------------|
G|-----------------12~--12~----|
D|-----------------------------|
A|-----------------------------|
E|-----------------------------|

Hope this helps!


************************************

| /   slide up
| \   slide down
| h   hammer-on
| p   pull-off
| ~   vibrato
| +   harmonic
| x   Mute note
| b   Bend
| pb  Pre-bend
| br  Bend release
| pbr Pre-bend release
| brb Bend release bend

************************************

            
            
Suggest correction
Creating personal tab
Creating personal tab
You can edit any tab online and save it as your Personal.

You can edit, replace or remove any tab part or add personal notes – all changes will be seen only by you.

Personal tabs can be accessed anytime from any device, even offline.
Learn more »
Give kudos to tab author, rate the tab!
1 2 3 4 5
comments
print report bad tab
2 comments total.
0 reply
myperuba 483 Aug 19, 2012 06:43 PM

This is more correct and less confusing imo

|-----------------------------------------------------------------|
|13------12--------------8--------------------------------10------|
|12------12--------------9----------------9---------------9-------|
|-----------------------------------------------------------------|
|-----------------------------------------------------------------|
|-----------------------------------------------------------------|

|-----------------------------------------------------------------|
|-----------------------------------------------------------------|
|--------9-------9------------------------9-------9-------9-/-12--|
|-----------------------------------------------------------------|
|-----------------------------------------------------------------|
|-----------------------------------------------------------------|

|-----------------------------------------------------------------|
|13------12--------------8----------------------------------------|
|12------12--------------9----------------9---------------7b9-----|
|-----------------------------------------------------------------|
|-----------------------------------------------------------------|
|-----------------------------------------------------------------|

|-----------------------------------------------------------------|
|-----------------------------------------------------------------|
|-------------------------r7\5---7----------------5-------7-------|
|-----------------------------------------------------------------|
|-----------------------------------------------------------------|
|-----------------------------------------------------------------|

|-----------------------------------------------------------------|
|-----------------------------------------------------------------|
|10b12-----------r10------9---------------------/-14-12-14--------|
|-----------------------------------------------------------------|
|-----------------------------------------------------------------|
|-----------------------------------------------------------------|

|-----------------------------------------------------------------|
|12b13---13--12--13b15---12h13h15-15b17r15--12--13--13b15----13---|
|-----------------------------------------------------------------|
|-----------------------------------------------------------------|
|-----------------------------------------------------------------|
|-----------------------------------------------------------------|

|--------------------------------|--------------------------------|
|13------13------13------12------|15------13----------------------|
|--------------------------------|----------------12--------------|
|--------------------------------|--------------------------------|
|--------------------------------|--------------------------------|
|--------------------------------|--------------------------------|

0 reply
oakleymatthew 20 May 29, 2015 06:10 PM, edited at 10:43 pm

Lack of accuracy. I've listened very carefully to this solo and I've absolutely cracked it. I'm submitting my own version right now. Your tab is missing the subtlety of the bends and slides. The main trick you missed was the big slide from 7th to 14th fret on the g-string, which sets up the rest of the solo in the 5th position pentatonic.

guest
You may want to rate the tab now too:
select rating
Wanna post a correction for this tab? Suggest correction