Oops, an error
Loading. Please wait.

Safe tab

73 views 1 this week
no commentswrite comment
1 2 3 4 5
3 more votes to show rating
add to favorites
×
Save as Personal and add changes to this tab that will be seen only by you. Learn more ›
×
You can save this tab as Personal to edit and correct it or add notes. All changes will be seen only by you. Learn more »
launch autoscroll
font size
0
reset
how to read this tab
guitar tuner
edit
Autoscroll
slow
fast
+/-
esc
set tempo
stop
-------------------------------------------------------------------------------
                             SAFE - Katie Armiger
-------------------------------------------------------------------------------
Tabbed by:Rose
E-mail:strikingmatches@icloud.com

Tuning:EADGBe

Intro:
   
e|-----------------------------------------------------------------------------|
B|-----0----------0---------0--0-----0---------0----------0---------0--3^3----3|
G|------0-0--------0-0-------0--------0-0--------0-0-------0-0-------0-----0---|
D|---2----------0---0-----0---0----0---0------2----------0--0-----0---0---0-0--|
A|-3-----3----5-----------------------------3-----3----5-----------------------|
E|----------------------3--------3------------------------------3--------------|
                                                                    
Verse 1:                                                           
   
e|--------------------------------------------------------------------------------------------|
B|-----0------------0-----------0--3----3-----------0------------0--------------------0-----0-|
G|------0-0----------0-0---------0--------0--0--------0-0----------0-0-------0----0-----0-----|
D|---2------------4---4-------0---0---0-----0-----2------------4----4-------0----0---2--------|
A|-3-----3------5-------------------------------3------3-----5----------------------------0---|
E|--------------------------3-------3-------------------------------------3----2---0----------|
                     
e|----------------------------------------------------------------------------------|
B|-----0---------0----------0---------3-----------0--3^3----3---------3-3-----3----3-|
G|------0-0--------0-0-------0---------2--2------0--------0---------0-------------0--|
D|---2---------4----4-----0---0-----0-----------2--2-----2---2---0-4---0--0-4--0-4---|
A|-3-----3---5----------------------------------------------------------------------|
E|---------------------3----------2------2-----0------------------------------------|
             
Verse 2:                                                       
 
e|----------------2---------3------3----------------2------------------------|
B|-------3--3-----3--------0---0-3---3-------3----------------0--3----3------|
G|-----0------2-2----0-------0----0---0-------0-0--2--2-0------------0--0----|
D|---0------0-------0----0----------------2----2--0----0----0---0---2--2-----|
A|-3-------------------------------------3-----------------------------------|
E|----------------------3--------3------------------------3----2---0---------|
   
e|-----3---------------------------------------------0^0---------------------------|
B|---------------3-----------0--------3----------0----------0----------1h3-1-3--3--|
G|------0-0---2----2-0-2-------0--------2-2-----0----------0---------0---------0---|
D|--2----2------0----------0----0----0---------2---2------2--2-----2--------------2|
A|-3--------------------------------------------------------------3----------------|
E|------------------------3--------2-----2---0-------------------------------------|

Chorus:

   Em                          D
e|-^-----^---|---|---^---|-----^-----^---|---|---^---|------|
B|/|\---/|\-\|/-\|/-/|\-\|/---/|\---/|\-\|/-\|/-/|\-\|/-----|
G|-|-----|---V---V---|---V-----|-----|---V---V---|---V------|
D|-|-----|-----------|---------|-----|-----------|----------|
A|-|---------------------------|----------------------------|
E|-|--------------------------------------------------------|

   Cadd9
e|-^-----^---|---|---^---|-----^-----^---|---|---^---|------|
B|/|\---/|\--|---|--/|\--|----/|\---/|\--|---|--/|\--|------|
G|-|-----|--\|/-\|/--|--\|/----|-----|--\|/-\|/--|--\|/-----|
D|-|-----|---V---V---|---V-----|-----|---V---V---|---V------|
A|-|-----|---------------------|-----|----------------------|
E|----------------------------------------------------------|

Repeat Em/D/Cadd9

   Am
e|-^-----^---|---|---^---|-----^-----^---|---|---^---|------|
B|/|\---/|\--|---|--/|\--|----/|\---/|\--|---|--/|\--|------|
G|-|-----|--\|/-\|/--|--\|/----|-----|--\|/-\|/--|--\|/-----|
D|-|-----|---V---V---|---V-----|-----|---V---V---|---V------|
A|-|-----|---------------------|-----|----------------------|
E|----------------------------------------------------------|

   G              Gsus2(maj7)     Em
e|-^-----^---|-----3----3---|-----^-----^---|---|---^---|---|
B|/|\---/|\--|----/3\--/3\--|----/|\---/|\--|---|--/|\--|---|
G|-|-----|--\|/----|----2---|-----|-----|---|---|---|---|---|
D|-|-----|---V-----|----|--\|/----|-----|--\|/-\|/--|--\|/--|
A|-|-----|---------|----|---V-----|-----|---V---V---|---V---|
E|-|-----|---------2----2---------|-----|-------------------|

   C
e|-^-----^---|---|---^---|------^-----^---|---|---^---|--------^--|
B|/|\---/|\--|---|--/|\--|-----/|\---/|\--|---|--/|\--|-------/|\-|
G|-|-----|--\|/-\|/--|--\|/-----|-----|--\|/-\|/--|--\|/-------|--|
D|-|-----|---V---V---|---V------|-----|---V---V---|---V--------|--|
A|-|-----|----------------------|-----|------------------------|--|
E|----------------------------------------------------------------|

            
e|----0--------------------------------------------------------------0---3----------|
B|------0------3------------3------------1--1---------0--------3-----1--1--3------3-|
G|---0------2----2--0---------0-0------0------------0----0---2--2-0--0-0--0------0--|
D|------------0----0------2----2-----2------------2----2------0--0---2--------2/4---|
A|----------0-----------3-----------3------3-------------------------3--------------|
E|-0--------------------------------------------0-----------------------------------|

Verse 3:                                                         
   
e|--------------------3---5------5----------3---------5-5-------3---------------------------|
B|----1------3--------3-3----3---3-3-------3--------3-3--------------------0----1-3------3--|
G|----0-----2-2-----0----0-----0-----0--------0--------------------------0-0------------2-2-|
D|--2--2---0---0----------------------------------0-----0----0-----4---2------2----2--4----4|
A|-3------------------------------------3------------------------------------3--------------|
E|----------------3---------3-----------------------------3------2----0---------------------|

e|-----3---------5-2---0-------7-3---0-----------------0---0------|
B|------0-0--------------------------------3-0-------1-3-1-3-1-0--|
G|-------0--------------------------------0---------0-0---0---0---|
D|-------------0-----0-------2-----2-----2--2------2--------------|
A|------------------------------------------------3---------------|
E|-3^3-------2-------------0-----------0--------------------------|

Chorus:

Em                          D
e|-^-----^---|---|---^---|-----^-----^---|---|---^---|------|
B|/|\---/|\-\|/-\|/-/|\-\|/---/|\---/|\-\|/-\|/-/|\-\|/-----|
G|-|-----|---V---V---|---V-----|-----|---V---V---|---V------|
D|-|-----|-----------|---------|-----|-----------|----------|
A|-|---------------------------|----------------------------|
E|-|--------------------------------------------------------|

   Cadd9
e|-^-----^---|---|---^---|-----^-----^---|---|---^---|------|
B|/|\---/|\--|---|--/|\--|----/|\---/|\--|---|--/|\--|------|
G|-|-----|--\|/-\|/--|--\|/----|-----|--\|/-\|/--|--\|/-----|
D|-|-----|---V---V---|---V-----|-----|---V---V---|---V------|
A|-|-----|---------------------|-----|----------------------|
E|----------------------------------------------------------|

Repeat Em/D/Cadd9

   Am
e|-^-----^---|---|---^---|-----^-----^---|---|---^---|------|
B|/|\---/|\--|---|--/|\--|----/|\---/|\--|---|--/|\--|------|
G|-|-----|--\|/-\|/--|--\|/----|-----|--\|/-\|/--|--\|/-----|
D|-|-----|---V---V---|---V-----|-----|---V---V---|---V------|
A|-|-----|---------------------|-----|----------------------|
E|----------------------------------------------------------|

   G              Gsus2(maj7)     Em
e|-^-----^---|-----3----3---|-----^-----^---|---|---^---|---|
B|/|\---/|\--|----/3\--/3\--|----/|\---/|\--|---|--/|\--|---|
G|-|-----|--\|/----|----2---|-----|-----|---|---|---|---|---|
D|-|-----|---V-----|----|--\|/----|-----|--\|/-\|/--|--\|/--|
A|-|-----|---------|----|---V-----|-----|---V---V---|---V---|
E|-|-----|---------2----2---------|-----|-------------------|

   C
e|-^-----^---|---|---^---|------^-----^---|---|---^---|--------^--|
B|/|\---/|\--|---|--/|\--|-----/|\---/|\--|---|--/|\--|-------/|\-|
G|-|-----|--\|/-\|/--|--\|/-----|-----|--\|/-\|/--|--\|/-------|--|
D|-|-----|---V---V---|---V------|-----|---V---V---|---V--------|--|
A|-|-----|----------------------|-----|------------------------|--|
E|----------------------------------------------------------------|

e|-----0---------2----------3-------------------0--------------0-----3---3----|
B|------0-0-----------------1-3-1--1-1-3-1-------0-0----3------1--3--1-3-1-3-1|
G|-------0-----2---2-2---------0----0---0---------0----2-2-0---0---0----0---0-|
D|------------0-----0---------------------------------0---0----2-2--2---------|
A|----------------------3^3--------3---------------------------3--------------|
E|-0^0--------------------------------------0^0-------------------------------|

Bridge:

e|-----0----0----0-----------3----3----3-----------0----0----0-----------2--------2h3---2----2-3|
B|-----1-1--1-1--1-1-1-------1-1--1-1--1-1-0-------0-0--0-0--0-0-0-------3--------3--------3----|
G|---2----2----2----2------0----0----0----0------0----0----0----0------2---2----2-----2---------|
D|-------------------------------------------------------------------0--------0-----------------|
A|-0---------------------3----------------------------------------------------------------------|
E|---------------------------------------------0----------------------------------|

e|-----------------------------------------------------------------------3-----------------|
B|----0-----------0----------0---0----0----------0----------0------------0-----3-----------|
G|------0--0--------0-0-------0--------0-0---------0-0--------0-0----------0-----2h4p2p0-0-|
D|--2-----------4----------0---0----0---0------0----0-----0----0------0------0----------0--|
A|-3------3----5-----5------------------------3----------5---------------------------------|
E|-----------------------3--------3---------------------------------3------------3---------|

Chorus:

Em                          D
e|-^-----^---|---|---^---|-----^-----^---|---|---^---|------|
B|/|\---/|\-\|/-\|/-/|\-\|/---/|\---/|\-\|/-\|/-/|\-\|/-----|
G|-|-----|---V---V---|---V-----|-----|---V---V---|---V------|
D|-|-----|-----------|---------|-----|-----------|----------|
A|-|---------------------------|----------------------------|
E|-|--------------------------------------------------------|

   Cadd9
e|-^-----^---|---|---^---|-----^-----^---|---|---^---|------|
B|/|\---/|\--|---|--/|\--|----/|\---/|\--|---|--/|\--|------|
G|-|-----|--\|/-\|/--|--\|/----|-----|--\|/-\|/--|--\|/-----|
D|-|-----|---V---V---|---V-----|-----|---V---V---|---V------|
A|-|-----|---------------------|-----|----------------------|
E|----------------------------------------------------------|

Repeat Em/D/Cadd9

   Am
e|-^-----^---|---|---^---|-----^-----^---|---|---^---|------|
B|/|\---/|\--|---|--/|\--|----/|\---/|\--|---|--/|\--|------|
G|-|-----|--\|/-\|/--|--\|/----|-----|--\|/-\|/--|--\|/-----|
D|-|-----|---V---V---|---V-----|-----|---V---V---|---V------|
A|-|-----|---------------------|-----|----------------------|
E|----------------------------------------------------------|

   G              Gsus2(maj7)     Em
e|-^-----^---|-----3----3---|-----^-----^---|---|---^---|---|
B|/|\---/|\--|----/3\--/3\--|----/|\---/|\--|---|--/|\--|---|
G|-|-----|--\|/----|----2---|-----|-----|---|---|---|---|---|
D|-|-----|---V-----|----|--\|/----|-----|--\|/-\|/--|--\|/--|
A|-|-----|---------|----|---V-----|-----|---V---V---|---V---|
E|-|-----|---------2----2---------|-----|-------------------|

Repeat Am/G/Gsus2(maj7)/Em

   C
e|-^-----^---|---|---^---|------^-----^---|---|---^---|--------^--|
B|/|\---/|\--|---|--/|\--|-----/|\---/|\--|---|--/|\--|-------/|\-|
G|-|-----|--\|/-\|/--|--\|/-----|-----|--\|/-\|/--|--\|/-------|--|
D|-|-----|---V---V---|---V------|-----|---V---V---|---V--------|--|
A|-|-----|----------------------|-----|------------------------|--|
E|----------------------------------------------------------------|

Outro:

e|-----0-------------------------------------------------------------------------------|
B|------0------3------------3------------1---1---------0---------3----------1h3-1-3-3--|
G|---0------2----2--0---------0-0------0-------------0----0---2----2--0----0-------0---|
D|------------0----0------2----2-----2-------------2----2-------0----0----2-----------2|
A|----------0-----------3-----------3------3-----------------------------3-------------|
E|-0---------------------------------------------0-------------------------------------|
                                                              Cadd9
e|-----0---------2----------3-------------------0---------------^---|
B|------0-0-----------------1-3-1--1-1-3-1-------0-0----3------/|\--|
G|-------0-----2---2-2---------0----0---0---------0----2-2-0----|---|
D|------------0-----0---------------------------------0---0-----|---|
A|----------------------3^3--------3----------------------------|---|
E|-0^0--------------------------------------0^0-----------------|---|


************************************

| /   slide up
| \   slide down
| h   hammer-on
| p   pull-off
| ~   vibrato
| +   harmonic
| x   Mute note
| b   Bend
| pb  Pre-bend
| br  Bend release
| pbr Pre-bend release
| brb Bend release bend

************************************

            
            
Suggest correction
Creating personal tab
Creating personal tab
You can edit any tab online and save it as your Personal.

You can edit, replace or remove any tab part or add personal notes – all changes will be seen only by you.

Personal tabs can be accessed anytime from any device, even offline.
Learn more »
Give kudos to tab author, rate the tab!
1 2 3 4 5
comments
print report bad tab
guest
Wanna post a correction for this tab? Suggest correction