Oops, an error
Loading. Please wait.
We have an official I Kissed A Girl tab made by UG professional guitarists. Check out the tab »
×
500 views 1 this week
no commentswrite comment
1 2 3 4 5
3 more votes to show rating
add to favorites
×
Save as Personal and add changes to this tab that will be seen only by you. Learn more ›
×
You can save this tab as Personal to edit and correct it or add notes. All changes will be seen only by you. Learn more »
launch autoscroll
font size
0
reset
how to read this tab
guitar tuner
edit
Autoscroll
slow
fast
+/-
esc
set tempo
stop
Author
Difficulty
OK so there is already a good version of the chords on here for this song, so long as you check the comments
for corrections. But here is a reminder.

it's

Am    /    C   /    Dm   /   F  E

in the verses, and that'll do you if you're just looking to make an acoustic cover. The middle 8 chords are:


F    /   Em    /    Am   /    G


But if you're looking to make a more accurate cover you may want to check this out.

Verse.


Guitar 1  (triplet feel, so 1 + a 2 + a etc)


e-------------------------------------------------------------------------------------------------
B-------------------------------------------------------------------------------------------------
G-------------------------------------------------------------------------------------------------
D-------------------------------------------------------------------------------------------------
A--------------------------------------------------5-5-5-5-5-5-5-5-5-5-5-5-8-8-8-8-8-8-7-7-7-7-7-5
E--5-5-5-5-5-5-5-5-5-5-5-5-7-7-7-7-7-7-8-8-8-8-8-8------------------------------------------------

guitar 2 (harmony)

e--------------------------------------------------------------------------------------------------
B--------------------------------------------------------------------------------------------------
G-------------------------------------------------5-5-5-5-5-5-5-5-5-5-5-5-5-5-5-5-5-5-5-5-5-5-5-4--
D-7-7-7-7-7-7-7-7-7-7-7-7--------------------------------------------------------------------------
A-------------------------8-8-8-8-8-8-7-7-7-7-7-7--------------------------------------------------
E--------------------------------------------------------------------------------------------------

guitar 3 (skanks come in half way through the verse)

plays Am chord on beats 2 and 4.
e-5-
B-5-
G-5-
D-7-
A---
E---

in the chorus it's just power chords, you can get the rhythm from listening, there's a short lead in to the F
which goes |-0-2-3-| on the D. I trust you can get that :) thanks

            
            
Suggest correction
Creating personal tab
Creating personal tab
You can edit any tab online and save it as your Personal.

You can edit, replace or remove any tab part or add personal notes – all changes will be seen only by you.

Personal tabs can be accessed anytime from any device, even offline.
Learn more »
Give kudos to tab author, rate the tab!
1 2 3 4 5
comments
print report bad tab
guest
You may want to rate the tab now too:
select rating
Wanna post a correction for this tab? Suggest correction