Oops, an error
Loading. Please wait.

Peacock bass

version 1
version 1

Whole song

Interactive

5,506 views 1 this week
2 commentsread comments
1 2 3 4 5
1 last vote to show rating
add to favorites
×
Save as Personal and add changes to this tab that will be seen only by you. Learn more ›
×
You can save this tab as Personal to edit and correct it or add notes. All changes will be seen only by you. Learn more »
launch autoscroll
font size
0
reset
guitar tuner
edit
Autoscroll
slow
fast
+/-
esc
set tempo
stop
Katy Perry - Peacock

+ Vid at the end...

Here is everything you need to play this song with a link to a vid of this exact tab 
used at the end.

Appologise for being no proper structual order but i wasnt able to do it with out it 
mega messey, But i promise youll pick it up in no time


Come in with....

G|--------------|
D|--------------|
A|-3h5-3--------|
E|-------6-1-3--|


Verse

G|---------|x3|---------------|
D|---------|x3|---------------|
A|---------|x3|--3h5-3--------|
E|-6-6-1-3-|x3|--------6-1-3--|


Are you brave enough to let me see your peacock....

G|---------------------|x3|-----------------------------------|
D|---------------------|x3|-----------------------------------|
A|-------------5-x-3-3-|x3|-----------------3-3-3-5-5-5-5-5---|
E|-3-x-3-x-3-x---------|x3|-5-5-5-6-6-6-6-6-------------------|


Fill.....

G|---------------------|
D|-5~--3---------------|
A|-------5-3-1-0-1-2---|
E|---------------------|


Interlude...

G|-------------------------------------------------------------------------------------------|
D|-------------------------------------------------------------------------------------------|
A|-33333333-33335555-66666666-66668888-1010101010101010-1010101010101010-88888888-88888888---|
E|-------------------------------------------------------------------------------------------|

G|-------------------------------------------------------------------------------------------|
D|-------------------------------------------------------------------------------------------|
A|-33333333-33335555-66666666-66668686-1010101010101010-1010101010101010-88888888-88888888---|
E|-------------------------------------------------------------------------------------------|


Last bit

G|--------------------|x3|--------------------|
D|--------------------|x3|--------------------|
A|-----------555-3333-|x3|---------3~--5~-----|
E|-33333333-3---------|x3|-5~--6~-------------|


And heres the vid... Be gratefull if you could subscribe to me on youtube and let me 
how you get on with this tab

http://www.youtube.com/watch?v=dnVa5NyUt1s

And if for some reason that dosnt work, try here...

www.youtube.com/user/HarryHopkinson

Have fun with it :)

            
            
Suggest correction
Creating personal tab
Creating personal tab
You can edit any tab online and save it as your Personal.

You can edit, replace or remove any tab part or add personal notes – all changes will be seen only by you.

Personal tabs can be accessed anytime from any device, even offline.
Learn more »
Give kudos to tab author, rate the tab!
1 2 3 4 5
comments
print report bad tab
2 comments total.
0 reply
TheActor 94 Nov 05, 2010 10:41 AM

Awesome! So glad this is up :D

0 reply
riiiighteous 10 Jan 01, 2012 03:00 PM

perfect except for the fill it should be

G|-----------------------|
D|-5~--3-----------------|
A|-------5-3-1-----1-3---|
E|-------------1-3-------|

guest
You may want to rate the tab now too:
select rating
Wanna post a correction for this tab? Suggest correction