Oops, an error
Loading. Please wait.

Strange World bass

version 1
version 1

Whole song

  • Five-string bass, corrected notes and articulation... Show more
by Ke
160 views 1 this week
3 commentsread comments
1 2 3 4 5
3 more votes to show rating
add to favorites
×
Save as Personal and add changes to this tab that will be seen only by you. Learn more ›
×
You can save this tab as Personal to edit and correct it or add notes. All changes will be seen only by you. Learn more »
launch autoscroll
font size
0
reset
guitar tuner
edit
Autoscroll
slow
fast
+/-
esc
set tempo
stop
--------------------------------------------------------------------------
                            Artist - Ke
                           *************
                        Song - Strange World
                       **********************
                        Album - I Am (1995)
                       *********************
                       Tabbed By - Ayreon77
                      **********************
--------------------------------------------------------------------------
Tuning = Standard             


INTRO
******
G|------------|------------|-------------|------------|
D|------------|------------|-------------|------------|
A|------------|---4-6-7--7-|-------------|------------|
E|-0-2-4-4--4-|-4----------|-0-0-2-2-0-2-|-0-2-4-4--4-|


-------------------
00:18
VERSE 1
********
G|------------|------------|------------|-------------|
D|------------|------------|------------|-------------|
A|------------|---4-6-7--7-|------------|-------------|
E|-0-2-4-4--4-|-4----------|-0-0-2-2--2-|-0-2-4-4-2-4-|


G|------------|------------|------------|-------------|
D|------------|------------|------------|-------------|
A|------------|---4-6-7--7-|------------|-------------|
E|-0-2-4-4--4-|-4----------|-0-0-2-2--2-|-0-2-4-4-2-4-|


G|------------|-------------|-------------|-------------|
D|------------|-------------|-------------|-------------|
A|------------|---4-6-7-4-7-|-------------|-------------|
E|-0-2-4-4--4-|-4-----------|-0-0-2-2-0-2-|-0-2-4-4-2-4-|


G|------------|------------|------------|-------------|
D|------------|------------|------------|-------------|
A|------------|---4-6-7--7-|------------|---2-1-------|
E|-0-2-4-4--4-|-4----------|-0-0-2-2--2-|-2-----4-2-4-|


-------------------
00:50
CHORUS
*******
G|--------------|----------------|--------------------------------|
D|-------2--2-2-|----------------|--------------------------------|
A|--------------|----------------|-4-6-6--4-6-6--6-7-7--6-7-6-4-2-|
E|-2-0-0--------|-0-2-2-2--0-2-2-|--------------------------------|


G|--------------|--------------------|-------|---------------s--------|
D|--------------|--------------------|-----6-|------------6-8\9-8-6-4-|
A|--------------|----------------1-2-|-------|------------------------|
E|-2-0-0-0--0-0-|-0-2-2-2--2-2-4-----|-4-4---|-0-2-4--4-4-------------|

01:06
G|------------------|--s--------------|--------------------|
D|------------------|-2\4-4-4---------|-2------------------|
A|--------------2---|-------------0---|--------------------|
E|-2-0-0-0--0-2---2-|---------2-4---2-|-----0---0--0-0-0-0-|

01:14
G|--------------|----------------|-------|
D|--------------|----------------|-------|
A|--------------|---2---4----2-4-|-------|
E|-4-4-4--0-2-4-|-4---4----4-----|-0-2-0-|


-------------------
01:22
VERSE 2
********
G|------------|------------|------------|-------------|
D|------------|------------|------------|-------------|
A|------------|---4-6-7--7-|------------|-------------|
E|-0-2-4-4--4-|-4----------|-0-0-2-2--2-|-0-2-4-4-2-4-|


G|------------|------------|------------|-------------|
D|------------|------------|------------|-------------|
A|------------|---4-6-7--7-|------------|-------------|
E|-0-2-4-4--4-|-4----------|-0-0-2-2--2-|-0-2-4-4-2-4-|


G|------------|-------------|-------------|-------------|
D|------------|-------------|-------------|-------------|
A|------------|---4-6-7---7-|-------------|-------------|
E|-0-2-4-4--4-|-4-----------|-0-0-2-2-0-2-|-0-2-4-4-2-4-|


G|------------|------------|------------|-------------|
D|------------|------------|------------|-------------|
A|------------|---4-6-7--7-|------------|---2-1-------|
E|-0-2-4-4--4-|-4----------|-0-0-2-2--2-|-2-----4-2-4-|


-------------------
01:53
CHORUS
*******
G|--------------|----------------|--------------------------------|
D|-------2--2-2-|----------------|--------------------------------|
A|--------------|----------------|-4-6-6--4-6-6--6-7-7--6-7-6-4-2-|
E|-2-0-0--------|-0-2-2-2--0-2-2-|--------------------------------|


G|--------------|--------------------|-------|---------------s--------|
D|--------------|--------------------|-----6-|------------6-8\9-8-6-4-|
A|--------------|----------------1-2-|-------|------------------------|
E|-2-0-0-0--0-0-|-0-2-2-2--2-2-4-----|-4-4---|-0-2-4--4-4-------------|

01:06
G|------------------|--s--------------|--------------------|
D|------------------|-2\4-4-4---------|-2------------------|
A|--------------2---|-------------0---|--------------------|
E|-2-0-0-0--0-2---2-|---------2-4---2-|-----0---0--0-0-0-0-|

01:14
G|--------------|----------------|-------|
D|--------------|----------------|-------|
A|--------------|---2---4----2-4-|-------|
E|-4-4-4--0-2-4-|-4---4----4-----|-0-2-0-|


-------------------
02:25
VIOLIN
*******
G|------------|------------|------------|-------------|
D|------------|------------|------------|-------------|
A|------------|---4-6-7--7-|------------|-------------|
E|-0-2-4-4--4-|-4----------|-0-0-2-2--2-|-0-2-4-4-2-4-|


G|------------|------------|------------|-------------|
D|------------|------------|------------|-------------|
A|------------|---4-6-7--7-|------------|-------------|
E|-0-2-4-4--4-|-4----------|-0-0-2-2--2-|-0-2-4-4-2-4-|


G|------------|-------------|-------------|-------------|
D|------------|-------------|-------------|-------------|
A|------------|---4-6-7---7-|-------------|-------------|
E|-0-2-4-4--4-|-4-----------|-0-0-2-2-0-2-|-0-2-4-4-2-4-|


G|------------|------------|------------|-------------------|--------|
D|------------|------------|------------|-------------------|--------|
A|------------|---4-6-7--7-|------------|---2-1-----2-1-----|--------|
E|-0-2-4-4--4-|-4----------|-0-0-2-2--2-|-2-----4-2-----4-2-|-0~~~~~-|


-------------------
02:56
CHORUS - No Bass
*******

-------------------
03:18
CHORUS
*******
G|-------------------|-------------|------------------------------|
D|-2-1---------------|-------------|----------------------2-1-----|
A|-----4-2-----------|-------------|--------------------2-----4-2-|
E|---------0--0--0-0-|-2--2-2--2-2-|-2-0--0--0-0--0-0-0-----------|


G|-----------|-----------------|----------------s---s--------|
D|-----------|-----------------|-------------6-8\9-8\9-8-6-4-|
A|-----------|-------------1---|-----------------------------|
E|-0--0--0-0-|-2--2-2--2-4---2-|-4-4---0-2-4-----------------|


G|--------------------|------------------------|
D|-2-2-2-2------------|-2----2-2---2---2-1-----|
A|---------4-2--------|----2-----2---2-----4-2-|
E|-------------4-2--2-|------------------------|

03:44                                               s
G|--------------|--------------|-----------------4-4\6-4---|
D|-2-2-2----2---|-4-4-4----4---|-6-6-6----4-6--6---------6-|
A|--------2---2-|--------4---4-|--------6------------------|
E|--------------|--------------|---------------------------|


G|----------------|-------------------------------------------|
D|-2-2-2--2-------|-4-4-4-------------------------------------|
A|----------4-2---|-------------------6---6--6-7-7--6-7-6-4-2-|
E|--------------4-|-------0-2-0--0-0----6---------------------|

03:59
G|------------|----------------------|-------------s------|
D|------------|----------------------|----------6-6\9-8-6-|
A|------------|----------------2-----|--------6-----------|
E|-0-0--0-0-0-|-0-2-2--2-0-2-4---4-4-|-0-2-4--------------|


G|-----------|--------------|-------------------------|
D|-2-2-2-----|--------------|---------2-2---2-2-1-----|
A|-------2---|--------------|-------2-----2-------4-2-|
E|---------0-|-0-2-2-2--2-2-|-2-0-0-------------------|


G|------------|----------------------------s----------|
D|------------|---------------------6---6-8\9-8-6-4-2-|
A|------------|------------2----6-6---6---------------|
E|-0-0--0-0-0-|-2--2-0-2-4---4------------------------|



ENJOY...........

            
            
Suggest correction
Creating personal tab
Creating personal tab
You can edit any tab online and save it as your Personal.

You can edit, replace or remove any tab part or add personal notes – all changes will be seen only by you.

Personal tabs can be accessed anytime from any device, even offline.
Learn more »
Give kudos to tab author, rate the tab!
1 2 3 4 5
comments
print report bad tab
3 comments total.
0 reply
angelo.nav86 10 Jun 27, 2017 07:24 AM

Hi! Thank you for the tabs! You missed a part in the chorus , please if you can correct this!

0 reply
ayreon77 21,833 Jun 27, 2017 07:44 AM

I,m not sure where you mean I just checked it and everything is there?
let me know where it's missing

0 reply
ayreon77 21,833 Jun 27, 2017 07:41 AM

ok let me check that, your welcome and thx, i will fix it.

guest
You may want to rate the tab now too:
select rating
Wanna post a correction for this tab? Suggest correction