Oops, an error
Loading. Please wait.

Sunshine bass

by Keane
869 views 1 this week
no commentswrite comment
1 2 3 4 5
1 last vote to show rating
add to favorites
×
Save as Personal and add changes to this tab that will be seen only by you. Learn more ›
×
You can save this tab as Personal to edit and correct it or add notes. All changes will be seen only by you. Learn more »
launch autoscroll
font size
0
reset
guitar tuner
edit
Autoscroll
slow
fast
+/-
esc
set tempo
stop
Author
+++++++++++++++++++
| Keane- Sunshine |
+++++++++++++++++++

Tuning: EADG

Verse
"I hold you in my hands..."
1.
G|------------------------------------------------------------------------|
D|------------------------------------------------------------------------|
A|-----7~-7-----7~-7-----7~-7-----7~-7-----7~-------7~-------7~---0~-0~-0-|
E|-0~-------0~-------0~-------0~-------0~-------0~-------0~---------------|

Pre-Chorus
"But if Im one thing..."
2.
G|---------------------------------------------|
D|----------0~--0~-0---------------------------|
A|-0~--0~-0----------0~--0~-0-1~--1~-1-1~------|
E|---------------------------------------------|

Chorus
"I should know, can anybody find their home..."
3.
G|-----------------------------------------------------------------------|
D|-0~--0~-0-0~--0~-0-------------------0~--0~-0-0~--0~-0-----------------|
A|-------------------2~--2~-2-1~--1~-0-------------------2~--2~-2-1~--1~-|
E|-----------------------------------------------------------------------|

Outro
4.
G|---------------------------------------------|
D|---------------------------------------------|
A|-----7~-77~-----7~-77~-----7~-77~----77~-77~-|
E|-0~---------0~---------0~---------0~---------|

Verse
"I hold you in cupped hands..."
5.
G|-----------------------------------------------------------------------------------------|
D|-----------------------------------------------------------------------------------------|
A|-----7~-77~-----7~-77~-----7~-77~----77~-77~-----7~-77~-----7~-77~-----7~-77~-0~--0~-00~-|
E|-0~---------0~---------0~---------0~---------0~---------0~---------0~--------------------|

Pre-Chorus
"But if Im one thing..."
6.
G|------------------------------------------------------|
D|------------0~--0~-00~--------------------------------|
A|-0~--0~-00~------------0~--0~-00~-1~--1~-11~-1~--1~---|
E|------------------------------------------------------|

Chorus
"I should know, can anybody find their home..."
7.
G|---------------------------------------------|
D|-0~--0~-00~-0~--0~-00~-----------------------|
A|-----------------------2~--2~-22~-1~--1~-1-0-|--x4
E|---------------------------------------------|

Bridge
8.
G|------------------------------------------------------|
D|------------0~--0~-00~--------------------------------|
A|-0~--0~-00~------------0~--0~-00~-1~--1~-11~-1~--1~---|
E|------------------------------------------------------|

Chorus
"Oh, can anybody find their home..."
9.
G|---------------------------------------------|
D|-0~--0~-00~-0~--0~-00~-----------------------|
A|-----------------------2~--2~-22~-1~--1~-1-0-|--x4
E|---------------------------------------------|

Outro
"ooh can anybody find their home..."
10.
G|---------------------------------------------|
D|-0~--0~-00~-0~--0~-00~-----------------------|
A|-----------------------2~--2~-22~-1~--1~-1-0-|--x3
E|---------------------------------------------|

11.
G|---------------------------------------------|
D|-0~--0~-00~-0~--0~-00~-----------------------|
A|-----------------------2~--2~-22~-1~---------|
E|---------------------------------------------|

Lyrics:

I hold you in my hands
A little animal
And only some dumb idiot
Would let you go

But if I'm one thing
Then that's the one thing

I should know
Can anybody find their home
Out of everyone
Can anybody find their home

I hold you in cupped hands
And shield you from a storm
Where only some dumb idiot
Would let you go

But if I'm one thing
Then that's the one thing

I should know
Can anybody find their home
Out of everyone
Can anybody find their home
Lost in the sun
Can anybody find their home
Come on, come on, come on
Can anybody find their home

+++++++++++++++++++++++++++++++++
| RaiLeff                       |
| Underground__Dora@Hotmail.Com |
+++++++++++++++++++++++++++++++++

            
            
Suggest correction
Creating personal tab
Creating personal tab
You can edit any tab online and save it as your Personal.

You can edit, replace or remove any tab part or add personal notes – all changes will be seen only by you.

Personal tabs can be accessed anytime from any device, even offline.
Learn more »
Give kudos to tab author, rate the tab!
1 2 3 4 5
comments
print report bad tab
guest
You may want to rate the tab now too:
select rating
Wanna post a correction for this tab? Suggest correction