Oops, an error
Loading. Please wait.

Just Like You tab

version 2
version 2

Whole song

  • The chords for this song are very obvious within t... Show more
271 views 9 this week
no commentswrite comment
1 2 3 4 5
2 more votes to show rating
add to favorites
×
Save as Personal and add changes to this tab that will be seen only by you. Learn more ›
×
You can save this tab as Personal to edit and correct it or add notes. All changes will be seen only by you. Learn more »
launch autoscroll
font size
0
reset
how to read this tab
guitar tuner
edit
Autoscroll
slow
fast
+/-
esc
set tempo
stop
About this tab version
The chords for this song are very obvious within this tab. Capo is on the 5th fret for the original version of the song but, I will sometimes use the Capo on the 3rd fret. Was this info helpful? Yes No
Capo 5

[Intro]
e|------------0--3---2--------------|------------0--3---2--5---1---1---------|
B|---0--1--3--1------3--3---0---0---|---0--1--3--1------3------0---0---------|
G|---0--------0------2------0---0---|---0--------0------2------0---0---------|
D|---0--------2------0------0---0---|---0--------2-------------0---0---------|
A|---2--------3-------------2---2---|---2--------3-------------2---2---------|
E|---3----------------------3---3---|---3----------------------3---3---------|

e|---0--0------1--1------0--0-------|---1--1-------0--0-------1--1-----------|
B|---1----1----0----0----1----1-----|---0----0-----1----1-----0----0---------|
G|---0------0--0------0--0------0---|---0------0---0------0---0------0-------|
D|---2---------0---------2----------|---0----------2----------0--------------|
A|---3---------2---------3----------|---2----------3----------2--------------|
E|-------------3--------------------|---3---------------------3--------------|
 
e|---0---2---0---1---1--------------|
B|---1---3---1---0---0--------------|
G|---0---2---0---0---0--------------|
D|---2-------2---0---0--------------|
A|---3-------3---2---2--------------|
E|---------------3---3--------------|

[Verse 1]
     Hello my friend it's been a while      All our clothes are back in style
e|-------------0---3---2----------------|--------------0---3----2--------1---1-------|
B|---0--1--3---1-------3---3----0---0---|---0--1---3---1--------3---3----0---0-------|
G|---0---------0-------2--------0---0---|---0----------0--------2--------0---0-------|
D|---0---------2-------0--------0---0---|---0----------2-----------------0---0-------|
A|---2--------------------------2---2---|---2----------------------------2---2-------|
E|---3--------------------------3---3---|---3----------------------------3---3-------|

     We went our seperate ways,    Only    to    return,      to   face a   lesson
e|---0----0-------1---1---------|--0--0----------1--1------|---0--0-------1--1-------|
B|---1------1-----0-----0-------|--1----1--------0----0----|---1----1-----0----0-----|
G|---0--------0---0-------0-----|--0------0------0------0--|---0------0---0------0---|
D|---2------------0---------0---|--2-------------0---------|---2----------0----------|
A|---3------------2-------------|--3-------------2---------|---3----------2----------|
E|----------------3-------------|----------------3---------|--------------3----------|

     We failed to Learn 
e|---0---2---0---1---1--------------|
B|---1---3---1---0---0--------------|
G|---0---2---0---0---0--------------|
D|---2-------2---0---0--------------|
A|---3-------3---2---2--------------|
E|---------------3---3--------------|

[Verse 2]
     We  didn't understand  the truth,     we were blinded by the eyes of youth
e|-------------0---3---2----------------|--------------0---3----2--------1---1---------|
B|---0--1--3---1-------3---3----0---0---|---0--1---3---1--------3---3----0---0---------|
G|---0---------0-------2--------0---0---|---0----------0--------2--------0---0---------|
D|---0---------3-------0--------0---0---|---0----------2--------0--------0---0---------|
A|---2--------------------------2---2---|---2----------------------------2---2---------|
E|---3--------------------------3---3---|---3----------------------------3---3---------|

     But, time kept on moving,     and a change has come,    you think that I don't know
e|---0----0-------1---1---------|--0--0----------1--1------|---0--0-------1--1---------|
B|---1------1-----0-----0-------|--1----1--------0----0----|---1----1-----0----0-------|
G|---0--------0---0-------0-----|--0------0------0------0--|---0------0---0------0-----|
D|---2------------0---------0---|--2-------------0---------|---2----------0------------|
A|---3------------2-------------|--3-------------2---------|---3----------2------------|
E|----------------3-------------|----------------3---------|--------------3------------|

    where your coming from 
e|---0----2---0---1---1--------------|
B|---1----3---1---0---0--------------|
G|---0----2---0---0---0--------------|
D|---2--------2---0---0--------------|
A|---3--------3---2---2--------------|
E|----------------3---3--------------|

[Chorus]
     Well I feel,(feel)  Just like you    and I  cry, (I cry) just like you
e|---1---1---2--2---------0---0---1----|--1------2--2---------0---0---1--------|
B|---0---0---3----3-------1---1---0----|----0----3----3-------1---1---0--------|
G|---0---0---2------2-----0---0---0----|------0--2------2-----0---0---0--------|
D|---0---0---0--------0---2---2---0----|---------0--------0---2---2---0--------|
A|---2---2----------------3---3---2----|----------------------3---3---2--------|
E|---3---3------------------------3----|------------------------------3--------|

     But I heal, (heal)  Just like you    under my skin,     I'm just like you
e|---1---1---2--2---------0---0---0----|--0--------0--0-------2--2---------1---|
B|---0---0---3----3-------1---1---0----|----0------1----1-----3----3-------0---|
G|---0---0---2------2-----0---0---0----|------0----0------0---2------2-----0---|
D|---0---0---0--------0---2---2---2----|--------2--2--------2----------0---0---|
A|---2---2----------------3---3---2----|-----------3-----------------------2---|
E|---3---3-----------------------------|-----------------------------------3---|

[Verse 3]
    You gave your love and innocence,       and they took away your confidence
e|-------------0---3---2----------------|--------------0---3----2--------1---1-------|
B|---0--1--3---1-------3---3----0---0---|---0--1---3---1--------3---3----0---0-------|
G|---0---------0-------2--------0---0---|---0----------0--------2--------0---0-------|
D|---0---------2-------0--------0---0---|---0----------2-----------------0---0-------|
A|---2--------------------------2---2---|---2----------------------------2---2-------|
E|---3--------------------------3---3---|---3----------------------------3---3-------|

     Your  not  those   women,     I'm  not  those men,      put your arms around me
e|---0----0-------1---1---------|--0--0----------1--1------|---0--0-------1--1-------|
B|---1------1-----0-----0-------|--1----1--------0----0----|---1----1-----0----0-----|
G|---0--------0---0-------0-----|--0------0------0------0--|---0------0---0------0---|
D|---2------------0---------0---|--2-------------0---------|---2----------0----------|
A|---3------------2-------------|--3-------------2---------|---3----------2----------|
E|----------------3-------------|----------------3---------|--------------3----------|

     I   am your friend
e|---0----2---0---1---1--------------|
B|---1----3---1---0---0--------------|
G|---0----2---0---0---0--------------|
D|---2--------2---0---0--------------|
A|---3--------3---2---2--------------|
E|----------------3---3--------------|

[Chorus]
     Well I feel,(feel)  Just like you    and I  cry, (I cry) just like you
e|---1---1---2--2---------0---0---1----|--1------2--2---------0---0---1------|
B|---0---0---3----3-------1---1---0----|----0----3----3-------1---1---0------|
G|---0---0---2------2-----0---0---0----|------0--2------2-----0---0---0------|
D|---0---0---0--------0---2---2---0----|---------0--------0---2---2---0------|
A|---2---2----------------3---3---2----|----------------------3---3---2------|
E|---3---3------------------------3----|------------------------------3------|

     But I heal, (heal)  Just like you    under my skin,     I'm just  like 
e|---1---1---2--2---------0---0---0----|--0--------0--0-------2--2---------1---|
B|---0---0---3----3-------1---1---0----|----0------1----1-----3----3-------0---|
G|---0---0---2------2-----0---0---0----|------0----0------0---2------2-----0---|
D|---0---0---0--------0---2---2---2----|--------2--2--------2----------0---0---|
A|---2---2----------------3---3---2----|-----------3-----------------------2---|
E|---3---3-----------------------------|-----------------------------------3---|

     you and everybody else         When I get hurt I cry for help
e|---2--2--------0--0--1--1------|------2--2------------0--0--1------|
B|---3----3------1--1--0----0----|------3----3----------1--1--0------|
G|---2------2----0--0--0------0--|------2------2--------0--0--0------|
D|------------0--2--2--0---------|---------------0------2--2--0------|
A|---------------3--3--2---------|----------------------3--3--2------|
E|---------------------3---------|----------------------------3------|

     And I've got secrets that God only knows        and God knows...
e|-------2--2-----------0-------0-------0--0-------|------0--2-------|
B|-------3----3---------1-------1-------0----0-----|------1--3-------|
G|-------2------2-------0-------0-------0------0---|------0--2-------|
D|----------------0-----2-------2-------2--------2-|------2----------|
A|----------------------3-------3-------2----------|------3----------|
E|-------------------------------------------------|-----------------|

      I feel,          Just like you      and I  cry,      just like you
e|---1---1---2--2---------0---0---1----|--1------2--2---------0---0---1------|
B|---0---0---3----3-------1---1---0----|----0----3----3-------1---1---0------|
G|---0---0---2------2-----0---0---0----|------0--2------2-----0---0---0------|
D|---0---0---0--------0---2---2---0----|---------0--------0---2---2---0------|
A|---2---2----------------3---3---2----|----------------------3---3---2------|
E|---3---3------------------------3----|------------------------------3------|

        I heal,       Just like you        and I breakdown just like you
e|------1---2--2---------0---0---1----|--1------2--2---------0---0---1------|
B|------0---3----3-------1---1---0----|----0----3----3-------1---1---0------|
G|------0---2------2-----0---0---0----|------0--2------2-----0---0---0------|
D|------0---0--------0---2---2---0----|---------0--------0---2---2---0------|
A|------2----------------3---3---2----|----------------------3---3---2------|
E|------3------------------------3----|------------------------------3------|

        I feel,       Just like you       and I cry        just like you
e|------1---2--2---------0---0---1----|--1------2--2---------0---0---1------|
B|------0---3----3-------1---1---0----|----0----3----3-------1---1---0------|
G|------0---2------2-----0---0---0----|------0--2------2-----0---0---0------|
D|------0---0--------0---2---2---0----|---------0--------0---2---2---0------|
A|------2----------------3---3---2----|----------------------3---3---2------|
E|------3------------------------3----|------------------------------3------|

     But I'm Weak,      Just like you    under my skin,     I'm just like you
e|---1---1---2--2---------0---0---0----|--0--------0--0-------2--2---------1---|
B|---0---0---3----3-------1---1---0----|----0------1----1-----3----3-------0---|
G|---0---0---2------2-----0---0---0----|------0----0------0---2------2-----0---|
D|---0---0---0--------0---2---2---2----|--------2--2--------2----------0---0---|
A|---2---2----------------3---3---2----|-----------3-----------------------2---|
E|---3---3-----------------------------|-----------------------------------3---|

            
            
Suggest correction
Creating personal tab
Creating personal tab
You can edit any tab online and save it as your Personal.

You can edit, replace or remove any tab part or add personal notes – all changes will be seen only by you.

Personal tabs can be accessed anytime from any device, even offline.
Learn more »
Give kudos to tab author, rate the tab!
1 2 3 4 5
comments
print report bad tab
guest
You may want to rate the tab now too:
select rating
Wanna post a correction for this tab? Suggest correction