Oops, an error
Loading. Please wait.

Highway Dont Care solo tab

version 1
version 1

Solo

9,054 views 3 this week
2 commentsread comments
1 2 3 4 5
x 11
add to favorites
×
Save as Personal and add changes to this tab that will be seen only by you. Learn more ›
×
You can save this tab as Personal to edit and correct it or add notes. All changes will be seen only by you. Learn more »
launch autoscroll
font size
0
reset
how to read this tab
guitar tuner
edit
Autoscroll
slow
fast
+/-
esc
set tempo
stop
Author
Difficulty
This is Tim McGraw, ft Taylor Swift & Keith Urban's "Highway Don't Care", just 
Keith Urban's solos. 
That is why I decided to publish it under Keith Urban.

(intro)
e|----------------------------------------------------------|
B|--------------------------------------2---2---------------|
G|--------------------------------------2---2---------------|
D|-2h4-4-4--2h4-4p2---2h4-------2h4-4-4-2h4-4p2---2---------|
A|------------------5-----2-2-2-----------------5---0-0-0-0-|
D|----------------------------------------------------------|

e|------------------------------------------------------------------------------|
B|------------------------------------------------------------------------------|
G|---------------------------------------2--------------------------------------|
D|-2h4-4-4~-2h4-4~-2---2---------2h4-4-4-2-4-4-4p2---2--------------0-2-4-------|
A|-------------------5---2-2-2-2---------2---------5---0-0-0-0--0-2-------------|
D|------------------------------------------------------------------------2br-0-|

(instrumental-bridge)
e|-11b~r-10-9-10~-9-------------------------------------------------|
B|------------------12-10-12~---------------------------------------|
G|----------------------------s11-14-11~----11-11br-9----------9----|
D|---------------------------------------14-----------12-11-12------|
A|---------------------------------------------------------------12-|
D|------------------------------------------------------------------|

e|-s12----------------------------------------5----7----9-----10----11b----------17~-|
B|-----14---------------------------------------------------------------15-14--------|
G|--------14------------------------------------------------------------------14-----|
D|-----------14-11-11br--------------------s5---s7---s9---s11---s12------------------|
A|----------------------14-12-14br---------------------------------------------------|
D|---------------------------------12-14b~-------------------------------------------|

(instrumental-out)
e|-14b-14-14~-12-12~--------12-14-14b-14-14~-12-12~--------12-14b-14-14~-12-12~-------|
B|-------------------15-15~-------------------------15-15~---------------------15-15~-|
G|------------------------------------------------------------------------------------|
D|------------------------------------------------------------------------------------|
A|------------------------------------------------------------------------------------|
D|------------------------------------------------------------------------------------|

e|-12-14-13b-12~--------------------------------------------------------------------|
B|----------------------------------------------------------------------------------|
G|----------------6-7-9-6-7-9-6-7-9-6-7-9-6-7-9-6-7-9-6-7-9-6-7-9-6-7-9-6-7-9-6-7-9-|
D|----------------------------------------------------------------------------------|
A|----------------------------------------------------------------------------------|
D|----------------------------------------------------------------------------------|

e|------------------------------------------------11b-13b-14b-16b-16b~-|
B|---------------------------------------------------------------------|
G|-6h7h9hp7p6-9p7p6-9p7p6-9p7p6-9p7p6-9p7p6-9p7p6----------------------|
D|---------------------------------------------------------------------|
A|---------------------------------------------------------------------|
D|---------------------------------------------------------------------|

            
            
Suggest correction
Creating personal tab
Creating personal tab
You can edit any tab online and save it as your Personal.

You can edit, replace or remove any tab part or add personal notes – all changes will be seen only by you.

Personal tabs can be accessed anytime from any device, even offline.
Learn more »
comments
print report bad tab
2 comments total.
0 reply
Pencom [tm] 29,691 Feb 21, 2013 09:55 AM

Very nice job! Well done...
Pencom
Set8

0 reply
bobby37 37 Dec 21, 2013 05:23 AM

awesome tab thanks

guest
You may want to rate the tab now too:
select rating
Wanna post a correction for this tab? Suggest correction