Oops, an error
Loading. Please wait.

John Cougar John Deere John 316 bass

6,016 views 24 this week
3 commentsread comments
1 2 3 4 5
x 6
add to favorites
×
Save as Personal and add changes to this tab that will be seen only by you. Learn more ›
×
You can save this tab as Personal to edit and correct it or add notes. All changes will be seen only by you. Learn more »
launch autoscroll
font size
0
reset
guitar tuner
edit
Autoscroll
slow
fast
+/-
esc
set tempo
stop
JOHN COUGAR, JOHN DEERE, JOHN 3:16 BASS

INTRO
G|---------------------------------------------------------------------------------|
D|------10---------10-9----------7---------------10--------10-9----------7---------|
A|----------------------10---------------------------------------10----------------|
E|--8-8-----8/7-7------------5-5----5-1-1---8-8------8/7-7-----------5-5----5-1-1--|

VERS1
G|------------------------------------------------------------------|
D|------10------------10-9---------------7--------------------------|
A|--------------------------10--------------------------------------|
E|--8-8---------8/7-7----------------5-5-------------5-1-1----------|
    I’M A 45    ON AN OLD VICTROLA   I’M A 2 STRIKE  I’M A PEPSI COLA
    SPINNING                         SWINGER

G|----------------------------------------------------------------------|
D|------10-------------------10-9--------------7-----------------14/----|
A|---------------------------------10-----------------------------------|
E|--8-8----------------8/7-7---------------5-5--------------------------|
    I’M A BLUE JEAN    SAYING I LOVE YOU   THE PROM QUEEN  IN A CHEVY
    QUARTERBACK        TO

G|-----------------------------------------------------------------|
D|------10--------------10-9-----------7---------------------------|
A|---------------------------10------------------------------------|
E|--8-8-----------8/7-7------------5-5--------------5-1-1----------|
    JOHN WAYNE,   CALIFORNIA       I’M A KRIS       SUNDAY MORNING
    SUPERMAN                       KRISTOFFERSON

G|-----------------------------------------------------------------|
D|------10--------------10-9-------------7-------------------------|
A|---------------------------10------------------------------------|
E|--8-8-----------8/7-7--------------5-5------------5-1-1----------|
    I’M A MOMMA   SINGING ALONG TO   DON MCLEAN     AT THE LEVY
    AND DADDY 

CHORUS 
G|---------------------------------------------------------------|
D|------10--------------5----------------------------------------|
A|---------------------------------------------------------------|
E|--8-8-----------3-3---------------5-5-X---------1-1------------|
    I’M A CHILD   OF THE BACKSEAT   BAPTIZED BY   ROCK N ROLL

G|-------------------------------------------------------------------------|
D|------10-----------------5-----------------------------------------------|
A|-------------------------------------------------------------------------|
E|--8-8--------------3-3----------------------5-5-X-----------1-1----------|
    MARILYN MONROE   IN THE GARDEN OF EDEN    NEVER GROW UP   NEVER GROW OLD

G|-------------------------------------------------------------------------|
D|------10--------------------5--------------------------------------------|
A|-------------------------------------------------------------------------|
E|--8-8------------------3-3---------------5-5-X-------------1-1-----------|
    JUST ANOTHER REBEL   IN THE GREAT      ON THE BOULEVARD  BROKEN DREAMS
                         WIDE OPEN         OF

G|-----------------------------------------------------------------|
D|------10----------------5----------------------------------------|
A|-----------------------------------------------------------------|
E|--8-8--------------3-3------------5-5-X-------------1-1----------|
    AND I LEARNED    I NEEDED TO    FROM JOHN COUGAR  JOHN 3:16
    EVERYTHING       KNOW           JOHN DEERE

G|------------------------------------------------------------|
D|------10------------10-9---------------7--------------------|
A|--------------------------10--------------------------------|
E|--8-8---------8/7-7----------------5-5--------5-1-1---------|
                                     YEAH,      YEAH

G|------------------------------------------------------------------|
D|------10------------10-9---------------7--------------------------|
A|--------------------------10--------------------------------------|
E|--8-8---------8/7-7----------------5-5-------------5-1-1----------|
    LET THEM    READ IT              THAT’S RIGHT

VERS2
G|-----------------------------------------------------------------------------|
D|------10-----------------10-9---------------7--------------------------------|
A|------------------------------10---------------------------------------------|
E|--8-8--------------8/7-7----------------5-5-------------5-1-1----------------|
    I’M MARK TWAIN   ON THE MISSISSIPPI   I’M HEMINGWAY   WITH A SHOT OF WHISKEY

G|-----------------------------------------------------------------------|
D|------10-----------------10-9--------------7/0------------15/0---------|
A|------------------------------10---------------------------------------|
E|--8-8--------------8/7-7---------------5-5-----------------------------|
    I’M A TV DINNER  ON A TRY TRYING     THE WHEEL       OF FORTUNE   
                     TO FIGURE OUT

G|----------------------------------------------------------------------------|
D|------10-------------------10-9---------------7-----------------------------|
A|---------------------------------10-----------------------------------------|
E|--8-8----------------8/7-7----------------5-5------------------5-1-1--------|
    I’M A TEXACO STAR  I’M A GIBSON GUITAR  STILL A TEENAGE KID  TO GO TOO FAR
                                            TRYIN’

G|----------------------------------------------------------------------------|
D|------10-----------------------10-9-------------7---------------------------|
A|------------------------------------10--------------------------------------|
E|--8-8--------------------8/7-7--------------5-5---------1/13----------------|
    I’M A JUKEBOX WAITING  IN A NEON BAR      FOR         A QUARTER

CHORUS 
G|---------------------------------------------------------------|
D|------10--------------5----------------------------------------|
A|---------------------------------------------------------------|
E|--8-8-----------3-3---------------5-5-X---------1-1------------|
    I’M A CHILD   OF THE BACKSEAT   BAPTIZED BY   ROCK N ROLL

G|-------------------------------------------------------------------------|
D|------10-----------------5-----------------------------------------------|
A|-------------------------------------------------------------------------|
E|--8-8--------------3-3----------------------5-5-X-----------1-1----------|
    MARILYN MONROE   IN THE GARDEN OF EDEN    NEVER GROW UP   NEVER GROW OLD

G|-------------------------------------------------------------------------|
D|------10--------------------5--------------------------------------------|
A|-------------------------------------------------------------------------|
E|--8-8------------------3-3---------------5-5-X-------------1-1-----------|
    JUST ANOTHER REBEL   IN THE GREAT      ON THE BOULEVARD  BROKEN DREAMS
                         WIDE OPEN         OF

G|-----------------------------------------------------------------|
D|------10----------------5----------------------------------------|
A|-----------------------------------------------------------------|
E|--8-8--------------3-3------------5-5-X-------------1-1----------|
    AND I LEARNED    I NEEDED TO    FROM JOHN COUGAR  JOHN 3:16
    EVERYTHING       KNOW           JOHN DEERE

G|------------------------------------------------------------|
D|------10------------10-9---------------7--------------------|
A|--------------------------10--------------------------------|
E|--8-8---------8/7-7----------------5-5--------5-1-1---------|

G|------------------------------------------------------------|
D|------10------------10-9---------------7--------------------|
A|--------------------------10--------------------------------|
E|--8-8---------8/7-7----------------5-5--------5-1-1---------|


I SPENT A LOT OF YEARS RUNNING FROM BELIEVING
LOOKIN’ FOR ANOTHER WAY TO SAVE MY SOUL
THE LONGER I LIVE THE MORE I SEE IT
THERE’S ONLY ONE WAY HOME

I’M A CHILD OF THE BACKSEAT FREEDOM
BAPTIZED BY ROCK N ROLL
MARILYN MONROE IN THE GARDEN OF EDEN
NEVER GROW UP, NEVER GROW OLD

G|-------------------------------------------------------------------------|
D|--------12-------------------7-------------------------------------------|
A|-------------------------------------------------------------------------|
E|--10-10----------------5-5---------------7-7-X-------------3-3-----------|
    JUST ANOTHER REBEL   IN THE GREAT      ON THE BOULEVARD  BROKEN DREAMS
                         WIDE OPEN         OF

G|---------------------------------------------------------------------|
D|--------12---------------7-------------------------------------------|
A|---------------------------------------------------------------------|
E|--10-10------------5-5------------7-7-X-------------3-3--------------|
    AND I LEARNED    I NEEDED TO    FROM JOHN COUGAR  JOHN 3:16
    EVERYTHING       KNOW           JOHN DEERE

G|---------------------------------------------------------------------|
D|--------12---------------7-------------------------------------------|
A|---------------------------------------------------------------------|
E|--10-10------------5-5------------7-7-X-------------3-3--------------|

CHORUS 
G|---------------------------------------------------------------|
D|------10--------------5----------------------------------------|
A|---------------------------------------------------------------|
E|--8-8-----------3-3---------------5-5-X---------1-1------------|
    I’M A CHILD   OF THE BACKSEAT   BAPTIZED BY   ROCK N ROLL

G|-------------------------------------------------------------------------|
D|------10-----------------5-----------------------------------------------|
A|-------------------------------------------------------------------------|
E|--8-8--------------3-3----------------------5-5-X-----------1-1----------|
    MARILYN MONROE   IN THE GARDEN OF EDEN    NEVER GROW UP   NEVER GROW OLD

G|-------------------------------------------------------------------------|
D|------10--------------------5--------------------------------------------|
A|-------------------------------------------------------------------------|
E|--8-8------------------3-3---------------5-5-X-------------1-1-----------|
    JUST ANOTHER REBEL   IN THE GREAT      ON THE BOULEVARD  BROKEN DREAMS
                         WIDE OPEN         OF

G|-----------------------------------------------------------------|
D|------10----------------5----------------------------------------|
A|-----------------------------------------------------------------|
E|--8-8--------------3-3------------5-5-X-------------1-1----------|
    AND I LEARNED    I NEEDED TO    FROM JOHN COUGAR  JOHN 3:16
    EVERYTHING       KNOW           JOHN DEERE

G|-------------------------------------------------------------------------|
D|------10--------------------5--------------------------------------------|
A|-------------------------------------------------------------------------|
E|--8-8------------------3-3---------------5-5-X-------------1-1-----------|

G|-------------------------------------------------------------------------|
D|------10--------------------5--------------------------------------------|
A|-------------------------------------------------------------------------|
E|--8-8------------------3-3---------------5-5-X-------------1-1-----------|

G|-------------------------------------------------------------------------|
D|------10--------------------5--------------------------------------------|
A|-------------------------------------------------------------------------|
E|--8-8------------------3-3---------------5-5-X-------------1-1-----------| 

            
            
Suggest correction
Creating personal tab
Creating personal tab
You can edit any tab online and save it as your Personal.

You can edit, replace or remove any tab part or add personal notes – all changes will be seen only by you.

Personal tabs can be accessed anytime from any device, even offline.
Learn more »
comments
print report bad tab
3 comments total.
+1 reply
tictaczack17 365 Sep 27, 2015 12:22 PM

I slide up to E -8- & there's a key change around the end of the song.. Other than that, great job

0 reply
greeendayrockr 1,935 Oct 03, 2015 09:59 PM

thanks, yeah there's a key change that starts at the verse I spent a lot of years running from believing I wasn't able to get that part yet. I'm new to playing bass.

0 reply
HashtagMC 282 Dec 30, 2016 01:32 PM

The bass stops during the "I spent a lot of years..." part, kicks in again during the second half of the following chorus, but 2 semitones higher from then.

guest
You may want to rate the tab now too:
select rating
Wanna post a correction for this tab? Suggest correction