Oops, an error
Loading. Please wait.

Sweet Thing tab

version 2
version 2

Whole song

Video

4,478 views 1 this week
2 commentsread comments
1 2 3 4 5
1 last vote to show rating
add to favorites
×
Save as Personal and add changes to this tab that will be seen only by you. Learn more ›
×
You can save this tab as Personal to edit and correct it or add notes. All changes will be seen only by you. Learn more »
launch autoscroll
font size
0
reset
how to read this tab
guitar tuner
edit
Autoscroll
slow
fast
+/-
esc
set tempo
stop
Author
Difficulty
This sounds pretty good just on a normal sound, but it will sound better with a delay 
a compressor. If you don't know the chords go on google.
 1 time                                       x4                    x2
e|-6~-|-----------7-7--------------7-7-7-7-------|---9p7-9p7--9p7-9p7-|
B|-4~-|------------------------------------------|--------------------|
G|----|--9p8-8h9----------8h9-8h9----------------|--------------------|
D|----|------------------------------------------|--------------------|
A|----|------------------------------------------|--------------------|
E|----|------------------------------------------|--------------------|

Verse
1st verse-listen for timing  2nd verse - each note palm muted
e|---------6~-------------|--------------------------------|
B|---------4~-------------|--------------------------------|
G|------------------------|--------/9-9-9-9-9---8-9-9-9-9--|
D|------------------------|--------------------------------|
A|------------------------|--------------------------------|
E|------------------------|--------------------------------|

Chorus - all chords
D
Sweet thing, The moon is high and the night is young
G
Come on and meet me, In the backyard under the cottonwood tree
Asus4                          G
It's a good thing and I'm wishin
D
C'mon sweet thing

Won't you climb on out of your window
                        G
While the world is sleepin

Cause you know I need you
                            Asus4
And there's no way I'll be leavin
                                G
Til we're kissing on the porch swing

Oh my little sweet thing

Intro
2nd Verse
Chorus
Solo
                  x3
e|-------------------|----------------------|
B|---/11-/11-/8h9-11-|-13b-11-13b-12-13b-12-|
G|-------------------|----------------------|
D|-------------------|----------------------|  1st part of solo again
A|-------------------|----------------------|
E|-------------------|----------------------|

e|---/20-/20-/17h18-/20--20b-20-20b-19-19b~-|
B|------------------------------------------|
G|------------------------------------------| Random notes
D|------------------------------------------| Haven't figured out yet.
A|------------------------------------------|
E|------------------------------------------|

Chorus - first half of chorus you don't play anything.
Outro - All Chords - Alternate  D and Dsus4
Intro until fade out.

            
            
Suggest correction
Creating personal tab
Creating personal tab
You can edit any tab online and save it as your Personal.

You can edit, replace or remove any tab part or add personal notes – all changes will be seen only by you.

Personal tabs can be accessed anytime from any device, even offline.
Learn more »
Give kudos to tab author, rate the tab!
1 2 3 4 5
comments
print report bad tab
2 comments total.
0 reply
dulik45 51 Aug 22, 2009 04:34 PM

on the intro riff, you can either play what is on the tab or:
e|--6~--|-----------7--------------7-7-------------|--9p7-9p7--|
B|--4~--|------------7--------------7-7------------|-----------|
G|------|--9p8-8h9-------8h9-8h9-------------------|-----------|
D|------|------------------------------------------|-----------|
A|------|------------------------------------------|-----------|
E|------|------------------------------------------|-----------|

0 reply
MrKnister 111 Aug 17, 2016 02:03 PM

sorry, but this is not sounding good in my ears.
some notes are in tune with standard tuning, e.g. the first in the intro and the solo.
Nearly everything else sounds ok with a half step lower, e.g. eb tuning...
but in total not easy to deal with, better have a look in version 1, which is 2 steps lower - e.g. DGCFAD - or version 3 which is cleary standard tuning completely and not confusing like this version. Sorry!

guest
You may want to rate the tab now too:
select rating
Wanna post a correction for this tab? Suggest correction