Oops, an error
Loading. Please wait.

Nada Es Importante tab

38 views 1 this week
no commentswrite comment
1 2 3 4 5
3 more votes to show rating
add to favorites
×
Save as Personal and add changes to this tab that will be seen only by you. Learn more ›
×
You can save this tab as Personal to edit and correct it or add notes. All changes will be seen only by you. Learn more »
launch autoscroll
font size
0
reset
how to read this tab
guitar tuner
edit
Autoscroll
slow
fast
+/-
esc
set tempo
stop
Author
Unregistered
E>-----------------
B>-----------------
G>-----0-2-2/42-0-
D>-0-2-------------
A>-----------------
E>-----------------

LAm        DO       SOL
Me quedé vacío ahora que no estás,
LAm         DO            SOL
Te llevaste todo y también mucho más,
LAm        DO            SOL
Se quedó pegada en mí la soledad,
SIm         DO          SOL
Porque eres única en el mundo,
SIm           DO         SOL
Porque no hay nadie como tú,
SIm         DO            SOL     RE     MIm
Porque no aguanto ni un segundo si no te tengo,
LAm     DO   RE
Es imposible seguir viviendo.
SOL               MIm
Sabes, ya nada es importante,
           LAm     DO          RE
Si tú ni estás aquí ya nada es importante,
     SOL            MIm
No estás, y nada es importante,
          LAm      DO         RE
Me cuesta respirar, sin ti me falta el aire.

Puenteo: FA DO FA RE

E>-----1-5-1-3-1-------------------------1-3p5
B>-1h3-----------3-3h4p3-1-1-3-3h4-1-1h3------
G>--------------------------------------------
D>--------------------------------------------
A>--------------------------------------------
E>--------------------------------------------

E>-------8--------------------------------10--
B>-6-6h8---8-6---6-8Bend(1/2)-8-6-5-8-6-5-----
G>-------------7------------------------------
D>--------------------------------------------
A>--------------------------------------------
E>--------------------------------------------

El latir es lento de mi corazón,
Lo has dejado solo y ésa es la razón,
Es difícil soportar este dolor,
Pues mi anestesia era tenerte,
Y mi remedio era tu voz,

¿Cómo soportaré este frío sin tus caricias?
Se ha congelado mi corazón.

Sabes, ya nada es importante,
Si tú ni estás aquí ya nada es importante,
No estás, y nada es importante,
Me cuesta respirar, sin ti me falta el aire.

Sabes, ya nada es importante,
Si tú ni estás aquí ya nada es importante,
    SOL
Sin ti

Sabes... oh, oh, oh (mismos acordes del coro).

SOL        MIm
Ya nada es importante,
           LAm        DO
Ya nada es importante,
           RE      SOL
Ya nada es importante...

            
            
Suggest correction
Creating personal tab
Creating personal tab
You can edit any tab online and save it as your Personal.

You can edit, replace or remove any tab part or add personal notes – all changes will be seen only by you.

Personal tabs can be accessed anytime from any device, even offline.
Learn more »
Give kudos to tab author, rate the tab!
1 2 3 4 5
comments
print report bad tab
guest
Wanna post a correction for this tab? Suggest correction