Oops, an error
Loading. Please wait.

Dont Let Me Stop You tab

version 3
version 3

Whole song

70 views 1 this week
no commentswrite comment
1 2 3 4 5
2 more votes to show rating
add to favorites
×
Save as Personal and add changes to this tab that will be seen only by you. Learn more ›
×
You can save this tab as Personal to edit and correct it or add notes. All changes will be seen only by you. Learn more »
launch autoscroll
font size
0
reset
how to read this tab
guitar tuner
edit
Autoscroll
slow
fast
+/-
esc
set tempo
stop
-------------------------------------------------------------------------------
                             Dont Let Me Stop You - Kelly Clarkson
-------------------------------------------------------------------------------
Tabbed by: Eduardo García Raigoza
E-mail: eduaro_tavitas@hotmail.com

Tuning: Drop D



Intro                                              x2

e|-----------------------------------------------------|
B|-----------------------------------------------------|
G|---7-7------------------------7-7---------------7----|
D|---7-7---7-7---2-2---0--------7-7---7-7---2-2---7----|
A|---5-5---7-7---2-2---0--------5-5---7-7---2-2---5----|
E|---------7-7---2-2---0--------------7-7---2-2--------|



   P.M.-----------------------------------------------------------------------------
e|----------------------------------------------------------------------------------|
B|----------------------------------------------------------------------------------|
G|----------------------------------------------------------------------------------|
D|--7-7-7-7-7-7-7-7---2-2-2-2-2-2-2-2-----------------------------------------------|
A|--5-5-5-5-5-5-5-5---0-0-0-0-0-0-0-0---2-2-2-2-2-2-2-2---0-0-0-0-0-0-0-0-----------|
E|--------------------------------------2-2-2-2-2-2-2-2---0-0-0-0-0-0-0-0-----------|

   P.M.-----------------------------------------------------------------------------
e|----------------------------------------------------------------------------------|
B|----------------------------------------------------------------------------------|
G|----------------------------------------------------------------------------------|
D|--7-7-7-7-7-7-7-7---2-2-2-2-2-2-2-2-----------------------------------------------|
A|--5-5-5-5-5-5-5-5---0-0-0-0-0-0-0-0---4-4-4-4-4-4-4-4---2-2-2-2-2-2-2-2-----------|
E|--------------------------------------4-4-4-4-4-4-4-4---2-2-2-2-2-2-2-2-----------|


   P.M.-----------------------------------------------------------------------------
e|----------------------------------------------------------------------------------|
B|----------------------------------------------------------------------------------|
G|----------------------------------------------------------------------------------|
D|--7-7-7-7-7-7-7-7---2-2-2-2-2-2-2-2-----------------------------------------------|
A|--5-5-5-5-5-5-5-5---0-0-0-0-0-0-0-0---2-2-2-2-2-2-2-2---0-0-0-0-0-0-0-0---4h5-4-0-|
E|--------------------------------------2-2-2-2-2-2-2-2---0-0-0-0-0-0-0-0-----------|


   P.M.-----------------------------------------------------------------------------
e|----------------------------------------------------------------------------------|
B|----------------------------------------------------------------------------------|
G|----------------------------------------------------------------------------------|
D|--7-7-7-7-7-7-7-7---2-2-2-2-2-2-2-2-----------------------------------------------|
A|--5-5-5-5-5-5-5-5---0-0-0-0-0-0-0-0---4-4-4-4-4-4-4-4---2-2-2-2-2-2-2-2-----------|
E|--------------------------------------4-4-4-4-4-4-4-4---2-2-2-2-2-2-2-2-----------|


   Pre chorus           x2
e|--------------------------|
B|--------------------------|
G|--7-----4-----------------|
D|--7-----4-----4-----2-----|
A|--5-----2-----4-----2-----|
E|--------------4-----2-----|


Chorus
e|---------------------------------------------------------------------------------------------|
B|---------------------------------------------------------------------------------------------|
G|--7--7--7-----2-2---2------------------------------------------------------------------------|
D|--7--7--7-----2-2---2-----2--2--2----0-0---0-----4--4--4-----7-7---7-----2--2--2--2-2-2------|
A|--5--5--5-----0-0---0-----2--2--2----0-0---0-----4--4--4-----7-7---7-----2--2--2--2-2-2------|
E|--------------------------2--2--2----0-0---0-----4--4--4-----7-7---7-----2--2--2--2-2-2------|


e|---------------------------------------------------------------------------------------------|
B|---------------------------------------------------------------------------------------------|
G|--7--7--7-----2-2---2------------------------------------------------------------------------|
D|--7--7--7-----2-2---2-----2--2--2----0-0---0-----4--4--4-----7-7---7-----2--2--2--2-2-2------|
A|--5--5--5-----0-0---0-----2--2--2----0-0---0-----4--4--4-----7-7---7-----2--2--2--2-2-2------|
E|--------------------------2--2--2----0-0---0-----4--4--4-----7-7---7-----2--2--2--2-2-2------|


   P.M.-----------------------------------------------------------------------------
e|----------------------------------------------------------------------------------|
B|----------------------------------------------------------------------------------|
G|----------------------------------------------------------------------------------|
D|--7-7-7-7-7-7-7-7---2-2-2-2-2-2-2-2-----------------------------------------------|
A|--5-5-5-5-5-5-5-5---0-0-0-0-0-0-0-0---2-2-2-2-2-2-2-2---0-0-0-0-0-0-0-0-----------|
E|--------------------------------------2-2-2-2-2-2-2-2---0-0-0-0-0-0-0-0-----------|

   P.M.-----------------------------------------------------------------------------
e|----------------------------------------------------------------------------------|
B|----------------------------------------------------------------------------------|
G|----------------------------------------------------------------------------------|
D|--7-7-7-7-7-7-7-7---2-2-2-2-2-2-2-2-----------------------------------------------|
A|--5-5-5-5-5-5-5-5---0-0-0-0-0-0-0-0---4-4-4-4-4-4-4-4---2-2-2-2-2-2-2-2-----------|
E|--------------------------------------4-4-4-4-4-4-4-4---2-2-2-2-2-2-2-2-----------|


   P.M.-----------------------------------------------------------------------------
e|----------------------------------------------------------------------------------|
B|----------------------------------------------------------------------------------|
G|----------------------------------------------------------------------------------|
D|--7-7-7-7-7-7-7-7---2-2-2-2-2-2-2-2-----------------------------------------------|
A|--5-5-5-5-5-5-5-5---0-0-0-0-0-0-0-0---2-2-2-2-2-2-2-2---0-0-0-0-0-0-0-0---4h5-4-0-|
E|--------------------------------------2-2-2-2-2-2-2-2---0-0-0-0-0-0-0-0-----------|


   P.M.-----------------------------------------------------------------------------
e|----------------------------------------------------------------------------------|
B|----------------------------------------------------------------------------------|
G|----------------------------------------------------------------------------------|
D|--7-7-7-7-7-7-7-7---2-2-2-2-2-2-2-2-----------------------------------------------|
A|--5-5-5-5-5-5-5-5---0-0-0-0-0-0-0-0---4-4-4-4-4-4-4-4---2-2-2-2-2-2-2-2-----------|
E|--------------------------------------4-4-4-4-4-4-4-4---2-2-2-2-2-2-2-2-----------|


  Pre chorus           x2
e|--------------------------|
B|--------------------------|
G|--7-----4-----------------|
D|--7-----4-----4-----2-----|
A|--5-----2-----4-----2-----|
E|--------------4-----2-----|


Chorus
e|---------------------------------------------------------------------------------------------|
B|---------------------------------------------------------------------------------------------|
G|--7--7--7-----2-2---2------------------------------------------------------------------------|
D|--7--7--7-----2-2---2-----2--2--2----0-0---0-----4--4--4-----7-7---7-----2--2--2--2-2-2------|
A|--5--5--5-----0-0---0-----2--2--2----0-0---0-----4--4--4-----7-7---7-----2--2--2--2-2-2------|
E|--------------------------2--2--2----0-0---0-----4--4--4-----7-7---7-----2--2--2--2-2-2------|


e|---------------------------------------------------------------------------------------------|
B|---------------------------------------------------------------------------------------------|
G|--7--7--7-----2-2---2------------------------------------------------------------------------|
D|--7--7--7-----2-2---2-----2--2--2----0-0---0-----4--4--4-----7-7---7-----2--2--2--2-2-2------|
A|--5--5--5-----0-0---0-----2--2--2----0-0---0-----4--4--4-----7-7---7-----2--2--2--2-2-2------|
E|--------------------------2--2--2----0-0---0-----4--4--4-----7-7---7-----2--2--2--2-2-2------|


e|---------------------------------------------------------------------------|
B|---------------------------------------------------------------------------|
G|--7-7------------------------------7---------------------------------------|
D|--7-7-----7-7-----4-4-----2-2------7------2--------------------------------|
A|--5-5-----7-7-----4-4-----2-2------5------2--------------------------------|
E|----------7-7-----4-4-----2-2-------------2--------------------------------|


e|--------------------------------------------------------------------------------|
B|--------------------------------------------------------------------------------|
G|--------------------------------------------------------------------------------|
D|--------------2--2--2----0-0---0----4--4--4----7-7---7-----2--2--2--2-2-2-------|
A|----x\\\\\\\\-2--2--2----0-0---0----4--4--4----7-7---7-----2--2--2--2-2-2-------|
E|----x\\\\\\\\-2--2--2----0-0---0----4--4--4----7-7---7-----2--2--2--2-2-2-------|


e|---------------------------------------------------------------------------------------------|
B|---------------------------------------------------------------------------------------------|
G|--7--7--7-----2-2---2------------------------------------------------------------------------|
D|--7--7--7-----2-2---2-----2--2--2----0-0---0-----4--4--4-----7-7---7-----2--2--2--2-2-2------|
A|--5--5--5-----0-0---0-----2--2--2----0-0---0-----4--4--4-----7-7---7-----2--2--2--2-2-2------|
E|--------------------------2--2--2----0-0---0-----4--4--4-----7-7---7-----2--2--2--2-2-2------|


e|---------------------------------------------------------------------------------------------|
B|---------------------------------------------------------------------------------------------|
G|--7--7--7-----2-2---2------------------------------------------------------------------------|
D|--7--7--7-----2-2---2-----2--2--2----0-0---0-----4--4--4-----7-7---7-----2--2--2--2-2-2------|
A|--5--5--5-----0-0---0-----2--2--2----0-0---0-----4--4--4-----7-7---7-----2--2--2--2-2-2------|
E|--------------------------2--2--2----0-0---0-----4--4--4-----7-7---7-----2--2--2--2-2-2------|


e|---------------------------------------------------------------------------------------------|
B|---------------------------------------------------------------------------------------------|
G|--7--7--7-----2-2---2------------------------------------------------------------------------|
D|--7--7--7-----2-2---2-----2--2--2----0-0---0-----4--4--4-----7-7---7-----2--2--2--2-2-2------|
A|--5--5--5-----0-0---0-----2--2--2----0-0---0-----4--4--4-----7-7---7-----2--2--2--2-2-2------|
E|--------------------------2--2--2----0-0---0-----4--4--4-----7-7---7-----2--2--2--2-2-2------|




e|--------------------------|
B|--------------------------|
G|---7-7--------------------|
D|---7-7---7-7---2-2---0----|
A|---5-5---7-7---2-2---0----|
E|---------7-7---2-2---0----|


END



************************************

| /   slide up
| \   slide down
| h   hammer-on
| p   pull-off
| ~   vibrato
| +   harmonic
| x   Mute note
| b   Bend
| pb  Pre-bend
| br  Bend release
| pbr Pre-bend release
| brb Bend release bend

************************************

            
            
Suggest correction
Creating personal tab
Creating personal tab
You can edit any tab online and save it as your Personal.

You can edit, replace or remove any tab part or add personal notes – all changes will be seen only by you.

Personal tabs can be accessed anytime from any device, even offline.
Learn more »
Give kudos to tab author, rate the tab!
1 2 3 4 5
comments
print report bad tab
guest
You may want to rate the tab now too:
select rating
Wanna post a correction for this tab? Suggest correction