Oops, an error
Loading. Please wait.

Trouble With Love Is bass

214 views 15 this week
no commentswrite comment
1 2 3 4 5
3 more votes to show rating
add to favorites
×
Save as Personal and add changes to this tab that will be seen only by you. Learn more ›
×
You can save this tab as Personal to edit and correct it or add notes. All changes will be seen only by you. Learn more »
launch autoscroll
font size
0
reset
guitar tuner
edit
Autoscroll
slow
fast
+/-
esc
set tempo
stop
Given how simple the song is, I would have figured there have been more tabs about it, even bass.  No such 
luck with finding more tabs, so here is my go at the song.  Hope it works well.

Intro: G|---------------------------------------------------------------------------|
       D|---------------------------------------------------------------------------|
       A|-------------------------------------------------------------4-4-4-0-6-6-0-|
       E|-1~-----1-1~--1-3-1-5~-----5-5~--5-3-5-6~-----6-6~--6-8-6-9~---------------|
          *   *    *   *     *   *    *   *     *   *    *   *     *    *     *

          Ooooohhh...

          Oooohhhh ya

          Mmmmm

Verse: G|---------------------------------------------------------------------------|
       D|---------------------------------------------------------------------------|
       A|-------------------------------------------------------------4-4-4-0-6-6-0-|
       E|-1~-----1-1~--1-3-1-5~-----5-5~--5-3-5-6~-----6-6~--6-8-6-9~---------------|
          *   *    *   *     *   *    *   *     *   *    *   *     *    *     *

          Love can be a many splendid thing. Can't deny the joy it brings

          A dozen roses and diamond rings. Dreams for sale and fairy tales

       G|---------------------------------------------------------------------------|
       D|---------------------------------------------------------------------------|
       A|-------------------------------------------------------------3-3-3-0-5-5-0-|
       E|-1~-----1-1~--1-3-1-5~-----5-5~--5-3-5-6~-----6-6~--6-6-8-8~---------------|
          *   *    *   *     *   *    *   *     *   *    *   *     *    *     *

          It'll make you hear a symphony and you'll just want the world to see.

          But like a drug that makes you blind, it'll fool you every time. The trouble with

Chorus: G|---------------------------------------------------------------------------|
        D|---------------------------------------------------------------------------| X2
        A|-------------------------------------------------------------4-4-4-0-6-6-0-|
        E|-1~-----1-1~--1-3-1-5~-----5-5~--5-3-5-6~-----6-6~--6-8-6-9~---------------|
           *   *    *   *     *   *    *   *     *   *    *   *     *    *     *

           love is it can tear you up inside.

           Make your heart believe a lie. It's stronger then your pride. The trouble with

           love is it doesn't care how fast you fall.

           And you can't refuse the call. See, you've got no say at all.

Verse: G|---------------------------------------------------------------------------|
       D|---------------------------------------------------------------------------|
       A|-------------------------------------------------------------4-4-4-0-6-6-0-|
       E|-1~-----1-1~--1-3-1-5~-----5-5~--5-3-5-6~-----6-6~--6-8-6-9~---------------|
          *   *    *   *     *   *    *   *     *   *    *   *     *    *     *

          Now I was a once a fool, it's true. I played the game by all the rules.

          But now my world's a deeper blue. I'm sadder, but I'm wiser, too.

       G|---------------------------------------------------------------------------|
       D|---------------------------------------------------------------------------|
       A|-------------------------------------------------------------3-3-3-0-5-5-0-|
       E|-1~-----1-1~--1-3-1-5~-----5-5~--5-3-5-6~-----6-6~--6-6-8-8~---------------|
          *   *    *   *     *   *    *   *     *   *    *   *     *    *     *

          I swore I'd never love again. I swore my heart would never mend.

          Said love wasn't worth the pain, but then I hear it call my name. The trouble with

Chorus: G|---------------------------------------------------------------------------|
        D|---------------------------------------------------------------------------| X2
        A|-------------------------------------------------------------4-4-4-0-6-6-0-|
        E|-1~-----1-1~--1-3-1-5~-----5-5~--5-3-5-6~-----6-6~--6-8-6-9~---------------|
           *   *    *   *     *   *    *   *     *   *    *   *     *    *     *

           love is it can tear you up inside.

           Make your heart believe a lie. It's stronger then your pride. The trouble with

           love is it doesn't care how fast you fall.

           And you can't refuse the call. See, you've got no say at all.

Bridge: G|-------------------------------------------------------------------|
        D|-------------------------------------------------------------------|
        A|-------------------5~--5-5~-5-5-3-------------------5~--5-5~-5-5-3-|
        E|-5~----5-0~--0-3-0----------------5~----5-0~--0-3-0----------------|
           *   *   *   *     *     *    *   *   *   *   *     *     *    *

           Every time I turn around. I think I've got it all figured out.

           My heart keeps callin' and I keep on fallin' over and over again.

        G|---------------------------------------------------------------------|
        D|---------------------------------------------------------------------|
        A|-1~----1-1~--1-------------------------------------------3-3-0-5-5-0-|
        E|---------------1~----1-1~--6-6~----6-6~--6-8-8-8-8-8-8-8-------------|
           *   *   *  *  *   *   *  *  *   *   *   *   *   *   *   *     *

           This set story always ends the same: Me standin' in the pouring rain.

           It seems no matter what I do, it tears my heart in two. The trouble with

Outro: G|---------------------------------------------------------------------------|
       D|---------------------------------------------------------------------------| X2 (Repeat until fade)
       A|-------------------------------------------------------------4-4-4-0-6-6-0-|
       E|-1~-----1-1~--1-3-1-5~-----5-5~--5-3-5-6~-----6-6~--6-8-6-9~---------------|
          *   *    *   *     *   *    *   *     *   *    *   *     *    *     *

          love (the trouble with love) is it can tear you up inside (can tear you up inside)

          Make yo' heart believe a lie (make yo' heart believe a lie) It's stronger than yo' pride. Trouble

          with love (trouble with love is) see your heart is in your soul (don't care how fast you fall)

          And you can't refuse the call (and you can't refuse the call) See, you've got no say at all.

            
            
Suggest correction
Creating personal tab
Creating personal tab
You can edit any tab online and save it as your Personal.

You can edit, replace or remove any tab part or add personal notes – all changes will be seen only by you.

Personal tabs can be accessed anytime from any device, even offline.
Learn more »
Give kudos to tab author, rate the tab!
1 2 3 4 5
comments
print report bad tab
guest
You may want to rate the tab now too:
select rating
Wanna post a correction for this tab? Suggest correction